Oops, an error
Loading. Please wait.

Crazy Bass Tab

version 3
version 3
2,586 views 1 this week
1 commentread comment
1 2 3 4 5
3 more votes to show rating
add to favorites
launch autoscroll
font size
0
reset
guitar tuner
Autoscroll
slow
fast
+/-
esc
set tempo
stop
Help us to improve Ultimate-Guitar.com Take our survey!
×
Author
Difficulty
Note: When there is a number with a number in parentheses next to it, it translates like 
0(8)= 00000000

Intro:
|(guitar)|------|------|------|------|------|------|------|------|
|rest-for|------|------|------|------|------|------|------|------|
|---16---|------|------|-4(8)-|-4(8)-|------|------|------|------|
|-beats--|-0(8)-|-0(8)-|------|------|-5(8)-|-5(8)-|-7(8)-|-7(8)-|

Verse 1:
|------|------|------|----------|------|------|------|------|
|------|------|------|----------|------|------|------|------|
|------|------|-4(8)-|-4444444--|------|------|------|------|
|-0(8)-|-0(8)-|------|--------0-|-5(8)-|-5(8)-|-7(8)-|-7(8)-|

Chorus 1:
|------|------|------|----------|------|-----------|------|------|
|------|------|------|----------|------|-----------|------|------|
|------|------|-4(8)-|-4444444--|------|------/764-|------|------|
|-0(8)-|-0(8)-|------|--------0-|-5(8)-|-55555-----|-7(8)-|-7(8)-|

Post-Chorus:
|------|----------|
|------|----------|
|------|-77777----|
|-0(8)-|------542-|

Verse 2: Same as Chorus 1.

[Chorus 1]

Bridge: I'm not sure exactly, but I know that it's reeeaally close.
|----------|----------------|----------|------|-----/998--|
|----------|----------------|----------|------|-----------|
|-4444467--|-------------67-|----------|------|-4444------|
|--------5-|-(rest)-55555---|-00000467-|-7(8)-|---------5-|

|----------------|----------|------|
|----------------|----------|------|
|----------------|----------|------|
|-(rest)-5555555-|-00000467-|-7(8)-|

Verse 3:
|------|------|------|----------|------|------|------|------|
|------|------|------|----------|------|------|------|------|
|-7(8)-|-7(8)-|-4(8)-|-4444444--|------|------|------|------|
|------|------|------|--------0-|-5(8)-|-5(8)-|-7(8)-|-7(8)-|

Chorus 2:
|------|------|------|----------|------|-----------|------|-----------|
|------|------|------|----------|------|-----------|------|-----------|
|------|------|-6(8)-|-6666666--|------|------/986-|------|-------/9\-|
|-2(8)-|-2(8)-|------|--------0-|-7(8)-|-77777-----|-9(8)-|-999999----|

|------|----------|------|----------|------|-----------|------|-----------|
|------|----------|------|----------|------|-----------|------|-----------|
|------|----------|-6(8)-|-6666666--|------|------/986-|------|-------/9\-|
|-2(8)-|-22222424-|------|--------0-|-7(8)-|-77777-----|-9(8)-|-999999----|

Ending Note:
|---------------------------|
|---------------------------|
|---------------------------|
|-2-(hold till end of song)-|
Suggest correction
Give kudos to tab author, rate the tab!
1 2 3 4 5
comments
print report bad tab
1 comment total.
0 reply
RoknOutInMyRoom 115 Jun 12, 2007 05:18 PM

Sorry, it didn't show up. Tuning is one half-step down, or:

F#|-----/998--|----------|----------|----------|
C#|-----------|----------|----------|----------|
G#|-4444------|----------|----------|----------|
Eb|---------5-|--5555555-|-00000467-|-77777777-|

guest
You may want to rate the tab now too:
select rating
Wanna post a correction for this tab? Suggest correction