Oops, an error
Loading. Please wait.

Crazy Tab

version 5
version 5
4,336 views 3 this week
1 commentread comment
1 2 3 4 5
accurate
x 3
add to favorites
launch autoscroll
font size
0
reset
how to read this tab
guitar tuner
Autoscroll
slow
fast
+/-
esc
set tempo
stop
Help us to improve Ultimate-Guitar.com Take our survey!
×
Author
Simple Plan - Crazy
Tabbed by: Xx22xX
its_brian_22@hotmail.com

tab should be pretty much all right..pretty simple song

DROP D

INTRO

Guitar 1

these are touch harmonics..its different for every guitar, if you dont know how to do a 
harmonic.. look up a lesson. note--turn up the gain/distortion n volume real loud if 
new at it
for my ibanez they're at (in order of how it goes):

second string - right above neck pickup
third string - right above neck pickup
second string - middle of nowhere (for my ibanez with 2 humbuckers)
third string - right above neck pickup
third string - middle of nowhere
third string - right above neck pickup
second string - middle of nowhere
third string - right above pick up

Guitar 2

E-----------------------|
B-----------------------|
G-----5--------8~-------|
D--1--5--6--8--8~-------|
A--1--3--6--8--6~-------|
D--1-----6--8-----------|


VERSE

Guitar 1

Repeat intro


CHORUS

Guitar 1+2

Repeat intro


VERSE

Guitar 1

near the end just do a simple

--------|
--------|
--------|
-xx-----|  x2
-xx-----|
-xx-----|

Repeat Chorus

theres a background guitar..with some kind of effect on it during this chorus


BRIDGE/SOLO/WHATEVERYOUWANTTOCALLTHIS

Guitar 1

E------------------------------------------|
B------------------------------------------|
G-12-12--10-12--12--10--8~----12-10-8--10--|  x 2
D-x--x---x--x---x---x---x-----x--x--x--x---|
A-10-10--8--10--10--8---6~----10-8--6--8---|
D------------------------------------------|

Guitar 2

this is at the second part in the second time of guitar 1s riff

E---------------------------|
B-9-11-9--------8-8h9p8-----|
G--------12-10~----------10~|
D---------------------------|
A---------------------------|
D---------------------------|

SECOND PART OF BRIDGE/SOLO/WHATEVERYOUWANTTOCALLTHIS..quiet-er part

Guitar 1 - back to the harmonics

Guitar 2 - Its either a slightly distorted guitar/clean/acoustic..doing staccatos (not 
sharp though..) on the Chorus chords..

FINAL cHORUS

Guitar 1
        (do stuff like this..)
E--------------------------------|
B----------10-11-10s8-6----------|
G-5s10---------------------------|
D--------------------------------|
A--------------------------------|
D--------------------------------|

Guitar 2

E--------------------------------|
B--------------------------------|
G---10---------------------------|
D---10--12--8--10----------------|
A---8---12--8--10----------------|
D-------12--8--10----------------|

OUTRO

Guitar 1

Do the intro harmonics fading away

Guitar 2

end on

E----------------|
B----------------|
G----------------|
D---3~-----------|
A---3~-----------|
D---3~-----------|


if you want to flame me, comment me, tell me how much i suck or how much you would want 
in your bed.. my emails its_brian_22@hotmail.com
Suggest correction
What's this?
You can suggest a correction to this tab. Community and Mods will review your correction and vote to approve or reject it.
comments
We did not receive enough feedback on this tab! Please rate:
print report bad tab
1 2 3 4 5
1 comment total.
0 reply
Xx22xX 113 wrote on March 18 2005, 12:00 am

wow. i got rated 1 star! wonder which part was that bad..

guest
You may want to rate the tab now too:
select rating
Please do not post tabs as comments. Select "correction" instead!