Oops, an error
Loading. Please wait.

Crazy Tab

version 6
version 6
23,132 views 6 this week
3 commentsread comments
1 2 3 4 5
x 4
add to favorites
launch autoscroll
font size
0
reset
how to read this tab
guitar tuner
Autoscroll
slow
fast
+/-
esc
set tempo
stop
Help us to improve Ultimate-Guitar.com Take our survey!
×
Author
Difficulty
advanced
----------------------------------------------------------------------------
                            simple plan-crazy
----------------------------------------------------------------------------

tabbed by:nathan mistcikokat
tuning:half step

intro riff(n.harmonics)
|--12-12-7-12--12-|
|12--7-------7----|
|-----------------|
|-----------------|(2x)
|-----------------|
|-----------------|

chorus(guitars I)
|--12-12-7-12--12-|
|12--7-------7----|
|-----------------|(8x)
|-----------------|
|-----------------|
|-----------------|

guitar II&III
|----------------------------------------------------------------|
|----------------------------------------------------------------|
|--------------------------------6-6-6-6-6-6-6-6-6-6-6-6-6-6-6-6-|
|2-2-2-2-2-2-2-2-2-2-2-2-2-2-2-2-6-6-6-6-6-6-6-6-6-6-6-6-6-6-6-6-|
|2-2-2-2-2-2-2-2-2-2-2-2-2-2-2-2-4-4-4-4-4-4-4-4-4-4-4-4-4-4-4-4-|
|0-0-0-0-0-0-0-0-0-0-0-0-0-0-0-0---------------------------------|

|----------------------------------------------------------------|
|----------------------------------------------------------------|
|----------------------------------------------------------------|
|7-7-7-7-7-7-7-7-7-7-7-7-7-7-7-7-9-9-9-9-9-9-9-9-9-9-9-9-9-9-9-9-|
|7-7-7-7-7-7-7-7-7-7-7-7-7-7-7-7-9-9-9-9-9-9-9-9-9-9-9-9-9-9-9-9-|
|5-5-5-5-5-5-5-5-5-5-5-5-5-5-5-5-7-7-7-7-7-7-7-7-7-7-7-7-7-7-7-7-|

verse
|--12-12-7-12--12-|
|12--7-------7----|
|-----------------|(8x)
|-----------------|
|-----------------|
|-----------------|
bass plays its part through out the verse(guitar II rings out)
|----------------------------------------------------------------|
|----------------------------------------------------------------|
|----------------------------------------------------------------|
|2~~~~-----------------------------------------------------------|
|2~~~~-----------------------------------------------------------|
|0~~~~-----------------------------------------------------------|

chorus
|--12-12-7-12--12-|
|12--7-------7----|
|-----------------|(8x)
|-----------------|
|-----------------|
|-----------------|

guitar II&III
|----------------------------------------------------------------|
|----------------------------------------------------------------|
|--------------------------------6-6-6-6-6-6-6-6-6-6-6-6-6-6-6-6-|
|2-2-2-2-2-2-2-2-2-2-2-2-2-2-2-2-6-6-6-6-6-6-6-6-6-6-6-6-6-6-6-6-|
|2-2-2-2-2-2-2-2-2-2-2-2-2-2-2-2-4-4-4-4-4-4-4-4-4-4-4-4-4-4-4-4-|
|0-0-0-0-0-0-0-0-0-0-0-0-0-0-0-0---------------------------------|

|----------------------------------------------------------------|
|----------------------------------------------------------------|
|----------------------------------------------------------------|
|7-7-7-7-7-7-7-7-7-7-7-7-7-7-7-7-9-9-9-9-9-9-9-9-9-9-9-9-9-9-9-9-|
|7-7-7-7-7-7-7-7-7-7-7-7-7-7-7-7-9-9-9-9-9-9-9-9-9-9-9-9-9-9-9-9-|
|5-5-5-5-5-5-5-5-5-5-5-5-5-5-5-5-7-7-7-7-7-7-7-7-7-7-7-7-7-7-7-7-|

break(guitar I)
|--12-12-7-12--12-|
|12--7-------7----|
|-----------------|(2x)
|-----------------|
|-----------------|
|-----------------|

|----------------------------------------------------------------|
|----------------------------------------------------------------|
|----------------------------------------------------------------|
|2~~~~-----------------------------------------------------------|
|2~~~~-----------------------------------------------------------|
|0~~~~-----------------------------------------------------------|

verse
|--12-12-7-12--12-|
|12--7-------7----|
|-----------------|(8x)
|-----------------|
|-----------------|
|-----------------|

(guitar II)
|--------------------|
|17v~--17v~-16v~-----|
|-----------------16-|
|--------------------|repeating
|--------------------|
|--------------------|

chorus reapeat

solo or bridge(guitar III)
|-----------------------------------------|
|-----------------------------------------|
|-----------------------------------------|
|11-11-9-11--11--9-7----/11--9---7/9------|
|11-11-9-11--11--9-7----/11--9---7/9------|
|-----------------------------------------|


|----------------------------------------------------|
|----------------------------------------------------|
|----------------------------------------------------|
|11-11-9-11--11--9-7----/11--9---7/9------9-9h11-11b-|
|11-11-9-11--11--9-7----/11--9---7/9------9-9----9b--|
|----------------------------------------------------|

interlude
|----------------------------------------------------------------|
|----------------------------------------------------------------|
|----------------------------------------------------------------|
|2~~~------------------------------------------------------------|
|2~~~------------------------------------------------------------|
|0~~~------------------------------------------------------------|

accoustic guitar
|---|---|---|
|-5-|---|---|
|-6-|---|---|
|-6-|-7-|-9-|
|-4-|-7-|-9-|
|---|-5-|-7-|


chorus(2x)
|------16----21----16----|
|---19----19----19----19-|
|18----------------------|
|------------------------|
|------------------------|
|------------------------|

guitar II&III
|----------------------------------------------------------------|
|----------------------------------------------------------------|
|----------------------------------------------------------------|
|--------------------------------8-8-8-8-8-8-8-8-8-8-8-8-8-8-8-8-|
|4-4-4-4-4-4-4-4-4-4-4-4-4-4-4-4-8-8-8-8-8-8-8-8-8-8-8-8-8-8-8-8-|
|4-4-4-4-4-4-4-4-4-4-4-4-4-4-4-4-6-6-6-6-6-6-6-6-6-6-6-6-6-6-6-6-|
|2-2-2-2-2-2-2-2-2-2-2-2-2-2-2-2---------------------------------|

|--------------------------------|
|--------------------------------|
|--------------------------------|
|9-9-9-9-9-9-9-9-9-9-9-9-9-9-9-9-|
|9-9-9-9-9-9-9-9-9-9-9-9-9-9-9-9-|
|7-7-7-7-7-7-7-7-7-7-7-7-7-7-7-7-|

-----------------------------------------------|
-----------------------------------------------|
-----------------------------------------------|
11-11-11-11-11-11-11-11-11-11-11-11-11-11-11-11|
11-11-11-11-11-11-11-11-11-11-11-11-11-11-11-11|
9--9--9--9--9--9--9--9--9--9--9--9--9--9--9--9-|


outro(guitar I)play
|------16----21----16----|
|---19----19----19----19-|
|18----------------------|
|------------------------|fade out
|------------------------|
|------------------------|


this song is correct.
thats all i have to say.
Suggest correction
comments
print report bad tab
3 comments total.
+2 reply
cip1234 10 Jan 08, 2007 08:55 AM

I haven't tried it out yet....but it looks like it'll sound right.lol
At least YOU know what a harmonic sounds like!!!!(see other versions of this tab) lol

+2 reply
uiop21 349 Nov 25, 2007 10:46 PM

Dude, this is by far the best intro I have seen yet

0 reply
Drazorback123 180 May 25, 2009 06:08 PM

Not bad...not bad...

guest
You may want to rate the tab now too:
select rating
Wanna post a correction for this tab? Suggest correction