Oops, an error
Loading. Please wait.

Dont Wanna Think About You Bass Tab

version 1
version 1

Whole song

2,089 views 1 this week
4 commentsread comments
1 2 3 4 5
x 6
add to favorites
launch autoscroll
font size
0
reset
guitar tuner
Autoscroll
slow
fast
+/-
esc
set tempo
stop
Help us to improve Ultimate-Guitar.com Take our survey!
×
Author
Band: Simple Plan
Song: "Don't Wanna Think About You"
Album: Don't Wanna Think About You-Single
Tabbed By: CheezeBiskit \m/ (-_-) \m/
E-Mail: gnarlycharlie2001@yahoo.com 

Ok...I tabbed this song 4 the guitar also.  So I thought I might as well tab it 4 bass
too.  I'm not a bass player, so I don't know if there is anything specific I have to
add.  Anyway, here it is!!! 

Intro: ~Wait~

Pre-Verse: Bass (x2)
eb|-------------------------------------------------------------------|
Gb|-------------------------------------------------------------------|
Db|--5-5-5-5-5-5-5-5-5-5-5-5------------------------------------------|
Eb|---------------------------3-3-3-3-3-3—-5-5-5-5-5-5----------------|

Verse: Bass
eb|-------------------------------------------------------------------|
Gb|-------------------------------------------------------------------|
Db|--5-5-5-5-5-5-5-5-5-5-5-5------------------------------------------|
Eb|---------------------------5-5-5-5-5-5-5-5-5-5-5-5-----------------|

Verse Continued: Bass
eb|-------------------------------------------------------------------|
Gb|-------------------------------------------------------------------|
Db|--5-5-5-5-5-5-5-5-5-5----------------------------------------------|
Eb|-----------------------0-2-3-3-3-3-3-3-3-3-3-3-3-3-----------------|

Pre-Chorus: Bass
eb|-------------------------------------------------------------------|
Gb|-------------------------------------------------------------------|
Db|-------------------------------------------------------------------|
Eb|--5-5-5-5-5-5-3-3-3-3-3-3-5-5-5-5-5-5-3----------------------------|

Chorus: Bass
eb|-------------------------------------------------------------------|
Gb|-------------------------------------------------------------------|
Db|--5-5-5-5-5-5------------------------------------------------------|
Eb|---------------5-5-5-5-5-5--7-7-7-7-7-7--3-3-3-3-3-3---------------|

Chorus Continued: Bass
eb|-------------------------------------------------------------------|
Gb|-------------------------------------------------------------------|
Db|--5-5-5-5-5-5------------------------------------------------------|
Eb|---------------5-5-5-5-5-5--7-7-7-7-7-7--5-5-5-5-5-5---------------|

Post-Chorus: Bass
eb|-------------------------------------------------------------------|
Gb|-------------------------------------------------------------------|
Db|-------------------------------------------------------------------|
Eb|--0-0-0-0-0-3-3-3-3-3-0-0-0-0-0-3--3-------------------------------|

{Return To Pre-Verse}

{Return To Verse}

{Return To Pre-Chorus}

{Return To Chorus}

{Return To Post-Chorus}

Pre-Bridge: Bass
eb|-------------------------------------------------------------------|
Gb|-------------------------------------------------------------------|
Db|-------------------------------------------------------------------|
Eb|--5-5-5-5-5-5-5-5-5-5-5-5------------------------------------------|

Bridge: Bass (x3)
eb|-------------------------------------------------------------------|
Gb|-------------------------------------------------------------------|
Db|---------------------------------------------5-5-5-4-4-4-----------|
Eb|--7-7-7-7-7-7-7--3-3-3-3-3-3-3--5-5-5-5-5-5------------------------|

Interlude: ~Wait~

{Return To Chorus}

{Return To Post-Chorus}

Outro: Bass
{(Play Chorus For Outro)(x4)}

End: Bass
eb|-------------------------------------------------------------------|
Gb|-------------------------------------------------------------------|
Db|-------------------------------------------------------------------|
Eb|--3-3-3-3-3-3-3--3-3-3-3-3-3-3--3-3-3-3-3-3-5-3-2-3~~~~~~~~~~~~~~~~|
Suggest correction
comments
print report bad tab
4 comments total. Showing first comments.
0 reply
RaptureBoy 610 Apr 07, 2004 12:00 AM

i will help u to rate it....~

0 reply
teo_huat 61 Sep 17, 2004 12:00 AM

too simple,, its correct but miss a few thing...

0 reply
The Used 664 51 Jan 31, 2005 12:00 AM

what the hell
not a bass player?!?!
then why are you doing bass tabs?!?!?!

guest
You may want to rate the tab now too:
select rating
Wanna post a correction for this tab? Suggest correction