Oops, an error
Loading. Please wait.

End Bass Tab

version 1
version 1

Whole song

Interactive

3,497 views 1 this week
no commentswrite comment
1 2 3 4 5
please rate
add to favorites
launch autoscroll
font size
0
reset
guitar tuner
Autoscroll
slow
fast
+/-
esc
set tempo
stop
Help us to improve Ultimate-Guitar.com Take our survey!
×
Author
The end bass tab by andreqpo@hotmail.it

Artist:Simple plan
Bassist:David Desrosiers

Tuning: one half step down (Eb Ab Db Gb)

s=slide
~=let ring

There's no bass in the verse! David doesn't play the verse in live concerts

Bass starts at 0:32
Pre-chorus
Gb--------------------------------------|
Db--------------------------------------|
Ab-0~--2~--4~--4~--0~--2~---------------|
Eb-------------------------4~--4-444444-|

Chorus
Gb--------------------------------------------------------------------------------------------------|
Db-------------------------222222222222------------------9---------------2222222222222--------------|
Ab-444444444444000000000000------------222222333333467911-97-000000000000-------------2222223333334-|
Eb--------------------------------------------------------------------------------------------------|

NO verse

Pre-chorus

Chorus2
Gb--------------------------------------------------------------------------------------------------------|
Db-------------------------222222222222------------------9---------------2222222222222--------------------|
Ab-444444444444000000000000------------222222333333467911-97-000000000000-------------222222s141414141414-|
Eb--------------------------------------------------------------------------------------------------------|

Chorus

Bridge
Gb------------------------------------------------------------------------------------------|
Db------------------------------------------------------------------------------------------|
Ab-0~--02~---5-4-2-444-0~--02~--4~--24-24-764-0~--02~--5-4-2-467-0~--2~-------------7777777-|
Eb----------------------------------------------------------------------444444444444--------|

Chorus3
Gb-W----------------------------------------------------|
Db-A-----------9---------------222222222222-------------|
Ab-I-2-3-467911-97-000000000000------------222222222222-|
Eb-T----------------------------------------------------|

Chorus

Enjoy!!
Suggest correction
Give kudos to tab author, rate the tab!
1 2 3 4 5
comments
print report bad tab
guest
You may want to rate the tab now too:
select rating
Wanna post a correction for this tab? Suggest correction