Oops, an error
Loading. Please wait.

End Bass Tab

version 2
version 2

Whole song

Interactive

991 views 1 this week
no commentswrite comment
1 2 3 4 5
2 more votes to show rating
add to favorites
launch autoscroll
font size
0
reset
guitar tuner
Autoscroll
slow
fast
+/-
esc
set tempo
stop
Help us to improve Ultimate-Guitar.com Take our survey!
×
Author
Difficulty
novice
The end - Simple plan     bass tab



no bass in verse 1



chorus 

G:--------------------------------------------------|
D:--------------------------------------------------|   x2 
A:--3333333------------66666666---------------------|
D:-----------44444444-------------66666666----------|

G:----------------------------------|
D:----------------------------------|    
A:--3-------------------------------|
D:----------------------------------|



no bass in verse 2


chorus 

G:--------------------------------------------------|
D:--------------------------------------------------|    x4
A:--3333333------------66666666---------------------|
D:-----------44444444-------------66666666----------|

G:----------------------------------|
D:----------------------------------|    
A:--3-------------------------------|
D:----------------------------------|

break

G:----------------------------------|
D:----------------------------------|    
A:--11--13--16--15--13--13/15/13----|
D:----------------------------------|

G:----------------------------------|
D:----------------------------------|    
A:--11--13--15--13/15---------------|
D:----------------------------------|

G:----------------------------------|
D:----------------------------------|    
A:--11--13--16--15--13--13/15/13----|
D:----------------------------------|

G:----------------------------------|
D:----------------------------------|    
A:--11--13--1010101010101010--------|
D:----------------------------------|

chorus 

G:--------------------------------------------------|
D:--------------------------------------------------|    
A:--3333333------------66666666---------------------|     x3
D:-----------44444444-------------66666666----------|

G:----------------------------------|
D:----------------------------------|    
A:--3-------------------------------|
D:----------------------------------|



By meangirl
Suggest correction
Give kudos to tab author, rate the tab!
1 2 3 4 5
comments
print report bad tab
guest
You may want to rate the tab now too:
select rating
Wanna post a correction for this tab? Suggest correction