Oops, an error
Loading. Please wait.

End Tab

version 2
version 2

Whole song

Interactive

1,389 views 1 this week
no commentswrite comment
1 2 3 4 5
please rate
add to favorites
launch autoscroll
font size
0
reset
how to read this tab
guitar tuner
Autoscroll
slow
fast
+/-
esc
set tempo
stop
Help us to improve Ultimate-Guitar.com Take our survey!
×
Author
---------------------------------------------------------------------------
                             THE END - Simple Plan
---------------------------------------------------------------------------

Verse (palm muted): There isn't really any guitar, but you can follow the beat by playing this

e|------------------------------------------------------------------------|
B|------------------------------------------------------------------------|
G|------------------------------------------------------------------------|
D|--55-555----44-444-------22-222--------33-333---------------------------|
A|--55-555----44-444-------22-222 -------33-333---------------------------|
E|------------------------------------------------------------------------|


Pre-chorus: 

e|------------------------------------------------------------------------|
B|------------------------------------------------------------------------|
G|------------------------------------------------------------------------|
D|--9-9---7-7---4-4---5-5---9-9---7-7---55555555-/------------------------|
A|--9-9---7-7---4-4---5-5---9-9---7-7---55555555-/------------------------|
E|--7-7---5-5---2-2---3-3---7-7---5-5---33333333-/------------------------|

Chorus (repeat as necessary):

e|------------------------------------------------------------------------|
B|------------------------------------------------------------------------|
G|--5----------4-----------8----------------------------------------------|
D|--5--(8x)----4--(8x)-----8--(8x)------7---------------------------------|
A|--3----------4-----------6------------7--(8x)---------------------------|
E|--------------------------------------5---------------------------------|

Bridge:
Before the singing begins, stay on this note:

e|------------------------------------------------------------------------|
B|------------------------------------------------------------------------|
G|------------------------------------------------------------------------|
D|----5-------------------------------------------------------------------|
A|----5-------------------------------------------------------------------|
E|----3-------------------------------------------------------------------|

Then

e|-------------------------------------------------------------------------------|
B|-------------------------------------------------------------------------------|
G|--5----------------7-------8-------9--------7-6-5-3----------------------------|
D|--5-(8x)--5--------7-(4x)--8-(4x)--9-(4x)---7-6-5-3-(8x)---3-------5-------7-8-|
A|--3-------5-(8x)---5-------6-------7--------5-4-3-1--------3-(8x)--5-(6x)--7-8-|
E|----------3------------------------------------------------1-------3-------5-6-|

e|--------------------------------------------------------------------------------|
B|--------------------------------------------------------------------------------|
G|--8-7-6-5----------------7-------8--------9--------7-6-5-3----------------------|
D|--8-7-6-5-(8x)---5-------7-(4x)--8-(4x)---9-(4x)---7-6-5-3-(8x)--3-----5--------|
A|--6-5-4-3--------5-(8x)--5-------6--------7--------5-4-3-1-------3-----5-(16x)--|
E|-----------------3-----------------------------------------------1-----3--------|

************************************

| /   slide up
Suggest correction new What's this?
You can suggest a correction to this tab. Community and Mods will review your correction and vote to approve or reject it.
comments
We did not receive enough feedback on this tab! Please rate:
print report bad tab
1 2 3 4 5
guest
You may want to rate the tab now too:
select rating
Please do not post tabs as comments. Select "correction" instead!