Oops, an error
Loading. Please wait.

Everytime Bass Tab

version 1
version 1

Whole song

Interactive

2,762 views 3 this week
1 commentread comment
1 2 3 4 5
excellent!
x 2
add to favorites
launch autoscroll
font size
0
reset
guitar tuner
Tab Pro tools
  • play this tab
  • loop segment
  • change instrument
  • show fretboard
  • metronome
Autoscroll
slow
fast
+/-
esc
set tempo
stop
Contributor
Difficulty
novice
Simple Plan - Everytime

No bass for this, so here it is, I think it's right, or it's near right anyway.
David does play this 1/2 step down, but I tabbed it in standard tuning to make life easier.
RATE!


0:25
Verse
G|---------------------------|
D|---------------------------|
A|-4~---01~------------------|
E|---------------12~--34~----|

Chorus
G|------------------------------------------|
D|------------------------------------------|
A|--4-(16x)-1-(16x)-------------------------|
E|---------------------2-(16x)---4-(16x)----|

G|----------------------------------------------|
D|----------------------------------------------|
A|--4-(16x)-1-(16x)-----------------------------|
E|---------------------2-(16x)---0-(8x)-5-(8x)--|

Verse
G|-----------------------------|
D|-----------------------------|
A|-4----011--------------------|
E|---------------122---344-----|

G|------------------------------------------------------------------|
D|------------------------------------------------------------------|
A|-344--44--44--44-011--11--11--11----------------------------------|
E|---------------------------------122--22--22--22-344--44--44--444-|
                                                                ...
                                                          (palm ^^^ mute)

Chorus
G|------------------------------------------|
D|------------------------------------------|
A|--4-(16x)-1-(16x)-------------------------|
E|---------------------2-(16x)---4-(16x)----|

G|----------------------------------------------|
D|----------------------------------------------|
A|--4-(16x)-1-(16x)-----------------------------|
E|---------------------2-(16x)---0-(8x)-5-(8x)--|

Solo
G|----------------------------------|
D|----------------------------------|
A|----------------------------------|
E|--2(repeat as needed)--55---5--5--|

G|----------------------------------|
D|----------------------------------|
A|-----------------------88----5~---|
E|--2(repeat as needed)-----55------|

Chorus (x2)
G|------------------------------------------|
D|------------------------------------------|
A|--4-(16x)-1-(16x)-------------------------|
E|---------------------2-(16x)---4-(16x)----|

G|----------------------------------------------|
D|----------------------------------------------|
A|--4-(16x)-1-(16x)-----------------------------|
E|---------------------2-(16x)---0-(8x)-5-(8x)--|


Please rate
comments
We did not receive enough feedback on this tab! Please rate:
print report bad tab
1 2 3 4 5
1 comment total.
0 reply
MyChemicalTonno wrote on July 10 2010, 01:59 pm

great!! 5* to me!

I want to post or [tab]
guest
You may want to rate the tab now too:
select rating
Please do not post tabs as comments. Select "correction" instead!