Oops, an error
Loading. Please wait.

Everytime Tab

version 1
version 1

Whole song

Interactive

11,560 views 21 this week
4 commentsread comments
1 2 3 4 5
x 10
add to favorites
launch autoscroll
font size
0
reset
how to read this tab
guitar tuner
Autoscroll
slow
fast
+/-
esc
set tempo
stop
Help us to improve Ultimate-Guitar.com Take our survey!
×
-----------------------------------------------------------------------------
                             Everytime - Simple Plan
-----------------------------------------------------------------------------

Tabbed by: kiefermatot

Email: bamcky2k_69@hotmail.com

Tuning: Half step down.

I didn't put in how many times you repeat things. You'll have to figure it out
yourself until I get around to it.


Intro/Verse 1 (Guitar 1)
Eb|------------|
Bb|------------|
Gb|------------|
Db|------------| Repeat as Needed until \"Just to get away\"
Ab|--5---------|
Eb|------------|


Verse 1 (Guitar 2 Acoustic)
Eb|--5-----7-----3------5-----| Guitar 1 plays the same the the second time.
Bb|--7-----7-----3------5-----|     
Gb|--7-----7-----4------6-----|X2
Db|--7-----9-----5------7-----| 
Ab|--5-----9-----5------7-----|  Listen to the song for strumming pattern
Eb|--5-----7-----3------5-----|
    C#    A#m   F#     G#     

CHORUS (Guitar 1)
Eb|-----------------------|------------------------------------|
Bb|-----------------------|------------------------------------|
Gb|--7-----4--------------|--7-----4----------10----------7----|
Db|--7-----4-----5----7---|--7-----4-----5----10-----7----7----|
Ab|--5-----2-----5----7---|--5-----2-----5----8------7----5----|
Eb|--------------3----5---|--------------3-----------5---------|

Chorus (Guitar 2 (Clean))
Eb|-------------------------------------------------------|
Bb|-----------------------------------------3-2---2h3-2---|
Gb|---7-5----4------7-5---4------7-5-4-2--------2-------2-|
Db|-5------7------5-----7------5--------------------------|
Ab|-------------------------------------------------------|
Eb|-------------------------------------------------------|
(continued)
Eb|---------------------------------------|
Bb|---------------------------------------| Listen for timing
Gb|---7-5----4----7-5----4----7-5-4-2---7-|
Db|-5------7----5------7-----5----------7-|
Ab|-------------------------------------5-|
Eb|---------------------------------------|

Verse 2
Eb|---------------------------|
Bb|---------------------------|Repeat as Needed and 
Gb|--77-----44----------------|listen to the song for timing
Db|--77-----44-----55----77---|X2
Ab|--55-----22-----55----77---|
Eb|----------------33----55---|

Repeat Chorus

Solo (Guitar 1)
Eb|--------------------------------|--------------------------------|
Bb|--------------------------------|--------------------------------|
Gb|--7/12-11-9-7-9-9/11-9-7/11-9---|--7/12-11-9-7-9-7/11-9-7/11-9-7~|
Db|--------------------------------|--------------------------------|
Ab|--------------------------------|--------------------------------|
Eb|--------------------------------|--------------------------------|
Bb|--------------------------------|--------------------------------|

Solo (Guitar 2)
Eb|-------------------------------|-------------------------------|
Bb|-------------------------------|-------------------------------|
Gb|-------------------------------|-----1010--------7~------------|
Db|-55-------------77-xx--7-xx-7--|-55---8 8---77---7~------------|
Ab|-55-Repeat------77-xx--7-xx-7--|-55---8 8---77---5~------------|
Eb|-33-as needed---55-xx--5-xx-5--|-33---------55-----------------|

Repeat Verse 1 with light strumming and end the last chord with a let Ring.

Repeat Chorus till end and remember the solo that comes in in the last chorus.

| /  slide up
| \  slide down
| h  hammer-on
| p  pull-off
| ~  vibrato
| +  harmonic
| x  Mute note
=============================================================================
Suggest correction
comments
print report bad tab
4 comments total. Showing first comments.
0 reply
DarkSideLeader 82 Dec 03, 2006 05:55 PM

looks good

+1 reply
Ulysses-rocks 103 Dec 15, 2006 02:35 AM

Good tab, but for ****s sake, why in flats?!?!?! THERES NO NEED

0 reply
yamaha182 302 Aug 14, 2007 12:57 AM

goood

guest
You may want to rate the tab now too:
select rating
Wanna post a correction for this tab? Suggest correction