Oops, an error
Loading. Please wait.

Farewell tab

772 views 6 this week
no commentswrite comment
1 2 3 4 5
x 3
add to favorites
×
Save as Personal and add changes to this tab that will be seen only by you. Learn more ›
×
You can save this tab as Personal to edit and correct it or add notes. All changes will be seen only by you. Learn more »
launch autoscroll
font size
0
reset
how to read this tab
guitar tuner
edit
Autoscroll
slow
fast
+/-
esc
set tempo
stop
FAREWELL

Intro
e|-------------------------------------------------------------------------------|
B|-------------------------------------------------------------------------------|
G|----11---11---11---11----11---11---11---11----11---11---11---11-----11---11----|
D|--9----9----9----9-----9----9----9----9-----9----9----9----9------9----9-------|
A|-------------------------------------------------------------------------------|
E|-------------------------------------------------------------------------------|
   FAREWELL DIDN’T MEAN TO LET YOU

e|----------------------------------------------------------|
B|--12----12---12----12---12----12--12-12/14----------------|
G|-----11---------11---------11-----------------------------|
D|----------------------------------------------------------|
A|----------------------------------------------------------|
E|----------------------------------------------------------|

e|----------------------------------------------------------|
B|--11----11---11----11---11----11-11--9/11-----------------|
G|-----11---------11---------11-----------------------------|
D|----------------------------------------------------------|
A|----------------------------------------------------------|
E|----------------------------------------------------------|

e|----------------------------------------------------------|
B|--12----12---12----12---12----12--12-12/14----------------|
G|-----11---------11---------11-----------------------------|
D|----------------------------------------------------------|
A|----------------------------------------------------------|
E|----------------------------------------------------------|

e|----------------------------------------------------------|
B|-----11----11----11----11------11-----11-----11----11-----|
G|--11----11----11----11------11-----11-----11----11--------|
D|----------------------------------------------------------|
A|----------------------------------------------------------|
E|----------------------------------------------------------|

Verse
e|---------------------------------------------------------------------|
B|---------------------------------------------------------------------|
G|---------------------------------------------------------------------|
D|--2-2-----------------------------6-6-6--4-4-------------------------|
A|--2-2-----------------------------6-6-6--4-4-------------------------|
E|--0-0-----------------------------4-4-4--2-2-------------------------|
        AFTER ALL THESE WASTED NIGHTS          I CAN’T PRETEND THAT I’M
                                               DOING FINE

e|---------------------------------------------------------------------|
B|---------------------------------------------------------------------|
G|--4-4-4------------------------------------------------------4-4-4---|
D|--4-4-4--2-2-------------------6-6-6--4-4--------------------4-4-4---|
A|--2-2-2--2-2-------------------6-6-6--4-4--------------------2-2-2---|
E|---------0-0-------------------4-4-4--2-2----------------------------|
               I PLAYED IT BACK              BUT NOW I SEE IT  
               A THOUSAND TIMES              AND I REALIZE

e|----------------------------------------------------------------------------|
B|----------------------------------------------------------------------------|
G|----------------------------------------------------------------------------|
D|--2-2-2-2--2-2-2-2---6-6-6-6--6-6-6-6---4-4-4-4-4-4-4-4---4-4-4-4-4-4-4-4---|
A|--2-2-2-2--2-2-2-2---6-6-6-6--6-6-6-6---4-4-4-4-4-4-4-4---4-4-4-4-4-4-4-4---|
E|--0-0-0-0--0-0-0-0---4-4-4-4--4-4-4-4---2-2-2-2-2-2-2-2---2-2-2-2-2-2-2-2---|
    THAT THE DAMAGE    AND IT’S OBVIOUS   WE CAN NEVER GO BACK TO THE WAY IT WAS
    IS DONE

e|----------------------------------------------------------------------------|
B|----------------------------------------------------------------------------|
G|----------------------------------------------------------------------------|
D|--2-2-2-2--2-2-2-2---6-6-6-6--6-6-6-6---4-4-4-4-4-4-4-4---4-4-4-4-4-4-4-4---|
A|--2-2-2-2--2-2-2-2---6-6-6-6--6-6-6-6---4-4-4-4-4-4-4-4---4-4-4-4-4-4-4-4---|
E|--0-0-0-0--0-0-0-0---4-4-4-4--4-4-4-4---2-2-2-2-2-2-2-2---2-2-2-2-2-2-2-2---|
    WE’RE DRIFTING     AND IT’S KILLING   IT’S KILLING US
    APART              US

e|-------------------------------------------------------------------------------|
B|-------------------------------------------------------------------------------|
G|----11---11---11---11----11---11---11---11----11---11---11---11-----11---11----|
D|--9----9----9----9-----9----9----9----9-----9----9----9----9------9----9-------|
A|-------------------------------------------------------------------------------|
E|-------------------------------------------------------------------------------|
   FAREWELL DIDN’T MEAN TO LET YOU

Chorus
e|-----------------------------------------------------------------------|
B|-----------------------------------------------------------------------|
G|---------------4-4-4-4-X-----------------------------------------------|
D|--2-2-2-2-X----4-4-4-4-X-----------4-4-4-4-X--4-4-4-4-X----------------|
A|--2-2-2-2-X----2-2-2-2-X-----------4-4-4-4-X--4-4-4-4-X----------------|
E|--0-0-0-0-X------------------------2-2-2-2-X--2-2-2-2-X----------------|
    TO LET       TO MESS     WE BOTH KNEW IT COULDN’T LAST FOREVER
    YOU DOWN     IT UP

e|-----------------------------------------------------------------------|
B|-----------------------------------------------------------------------|
G|---------------4-4-4-4-X-----------------------------------------------|
D|--2-2-2-2-X----4-4-4-4-X-------------4-4-4-4-X--4-4-4-4-X--------------|
A|--2-2-2-2-X----2-2-2-2-X-------------4-4-4-4-X--4-4-4-4-X--------------|
E|--0-0-0-0-X--------------------------2-2-2-2-X--2-2-2-2-X--------------|
    IT’S COMING  I’VE HAD   I GUESS WE CRUMBLED UNDER ALL THE PRESSURE
    DOWN         ENOUGH

e|-----------------------------------------------------------------------|
B|-----------------------------------------------------------------------|
G|------------------------------4-4-4-4-X--------------------------------|
D|--6-6-6-6-X----2-2-2-2-X------4-4-4-4-X--------4-4-4-4-X---------------|
A|--6-6-6-6-X----2-2-2-2-X------2-2-2-2-X--------4-4-4-4-X---------------|
E|--4-4-4-4-X----0-0-0-0-X-----------------------2-2-2-2-X---------------|
    DID MY BEST  FOR WHAT IT’S  AND I GIVE YOU   HEART COULD GIVE SO
               WORTH          ALL THIS

e|----------------------------------------------------------------------|
B|----------------------------------------------------------------------|
G|----------------------------------------------------------------------|
D|--2-2-2-2--2-2-2-2---2-2-2-2--2-2-2-2---4-4-4-4-4-4-4-4---------------|
A|--2-2-2-2--2-2-2-2---2-2-2-2--2-2-2-2---4-4-4-4-4-4-4-4---------------|
E|--0-0-0-0--0-0-0-0---0-0-0-0--0-0-0-0---2-2-2-2-2-2-2-2---------------|
    FAREWELL                              DIDN’T MEAN TO LET YOU

e|----------------------------------------------------------------------|
B|----------------------------------------------------------------------|
G|-------------------------------------------4-4------------------------|
D|--2-2----6-6---4-4--4-4------2-2---6-6---4-4-4-4-4--------------------|
A|--2-2----6-6---4-4--4-4------2-2---6-6---4-2-2-4-4--------------------|
E|--0-0----4-4---2-2--2-2------0-0---4-4---2-----2-2--------------------|
    DOWN

Verse 2
e|---------------------------------------------------------------------|
B|---------------------------------------------------------------------|
G|---------------------------------------------------------------------|
D|--2-2-------------------------------6-6-6--4-4-----------------------|
A|--2-2-------------------------------6-6-6--4-4-----------------------|
E|--0-0-------------------------------4-4-4--2-2-----------------------|
   THERE’S WAS A TIME YOU’D SCREAM MY NAME       IT USE TO BE MY GETAWAY 

e|---------------------------------------------------------------------|
B|---------------------------------------------------------------------|
G|--4-4-4------------------------------------------------------4-4-4---|
D|--4-4-4--2-2-----------------------6-6-6--4-4----------------4-4-4---|
A|--2-2-2--2-2-----------------------6-6-6--4-4----------------2-2-2---|
E|---------0-0-----------------------4-4-4--2-2------------------------|
                 NOW ALL WE DO IS                MAYBE I’M THE
                 JUST COMPLAIN                   ONE TO BLAME

e|----------------------------------------------------------------------------|
B|----------------------------------------------------------------------------|
G|----------------------------------------------------------------------------|
D|--2-2-2-2--2-2-2-2---6-6-6-6--6-6-6-6---4-4-4-4-4-4-4-4---4-4-4-4-4-4-4-4---|
A|--2-2-2-2--2-2-2-2---6-6-6-6--6-6-6-6---4-4-4-4-4-4-4-4---4-4-4-4-4-4-4-4---|
E|--0-0-0-0--0-0-0-0---4-4-4-4--4-4-4-4---2-2-2-2-2-2-2-2---2-2-2-2-2-2-2-2---|
    THAT THE DAMAGE    AND IT’S OBVIOUS   WE CAN NEVER GO BACK TO THE WAY IT WAS
    IS DONE

e|----------------------------------------------------------------------------|
B|----------------------------------------------------------------------------|
G|----------------------------------------------------------------------------|
D|--2-2-2-2--2-2-2-2---6-6-6-6--6-6-6-6---4-4-4-4-4-4-4-4---4-4-4-4-4-4-4-4---|
A|--2-2-2-2--2-2-2-2---6-6-6-6--6-6-6-6---4-4-4-4-4-4-4-4---4-4-4-4-4-4-4-4---|
E|--0-0-0-0--0-0-0-0---4-4-4-4--4-4-4-4---2-2-2-2-2-2-2-2---2-2-2-2-2-2-2-2---|
    WE’RE DRIFTING     AND IT’S KILLING   IT’S KILLING US
    APART              US

e|-------------------------------------------------------------------------------|
B|-------------------------------------------------------------------------------|
G|----11---11---11---11----11---11---11---11----11---11---11---11-----11---11----|
D|--9----9----9----9-----9----9----9----9-----9----9----9----9------9----9-------|
A|-------------------------------------------------------------------------------|
E|-------------------------------------------------------------------------------|
   FAREWELL DIDN’T MEAN TO LET YOU

Chorus
e|-----------------------------------------------------------------------|
B|-----------------------------------------------------------------------|
G|---------------4-4-4-4-X-----------------------------------------------|
D|--2-2-2-2-X----4-4-4-4-X-----------4-4-4-4-X--4-4-4-4-X----------------|
A|--2-2-2-2-X----2-2-2-2-X-----------4-4-4-4-X--4-4-4-4-X----------------|
E|--0-0-0-0-X------------------------2-2-2-2-X--2-2-2-2-X----------------|
    TO LET       TO MESS     WE BOTH KNEW IT COULDN’T LAST FOREVER
    YOU DOWN     IT UP

e|-----------------------------------------------------------------------|
B|-----------------------------------------------------------------------|
G|---------------4-4-4-4-X-----------------------------------------------|
D|--2-2-2-2-X----4-4-4-4-X-------------4-4-4-4-X--4-4-4-4-X--------------|
A|--2-2-2-2-X----2-2-2-2-X-------------4-4-4-4-X--4-4-4-4-X--------------|
E|--0-0-0-0-X--------------------------2-2-2-2-X--2-2-2-2-X--------------|
    IT’S COMING  I’VE HAD   I GUESS WE CRUMBLED UNDER ALL THE PRESSURE
    DOWN         ENOUGH

e|-----------------------------------------------------------------------|
B|-----------------------------------------------------------------------|
G|------------------------------4-4-4-4-X--------------------------------|
D|--6-6-6-6-X----2-2-2-2-X------4-4-4-4-X--------4-4-4-4-X---------------|
A|--6-6-6-6-X----2-2-2-2-X------2-2-2-2-X--------4-4-4-4-X---------------|
E|--4-4-4-4-X----0-0-0-0-X-----------------------2-2-2-2-X---------------|
    DID MY BEST  FOR WHAT IT’S  AND I GIVE YOU   HEART COULD GIVE SO
               WORTH          ALL THIS

e|----------------------------------------------------------------------|
B|----------------------------------------------------------------------|
G|----------------------------------------------------------------------|
D|--2-2-2-2--2-2-2-2---2-2-2-2--2-2-2-2---4-4-4-4-4-4-4-4---------------|
A|--2-2-2-2--2-2-2-2---2-2-2-2--2-2-2-2---4-4-4-4-4-4-4-4---------------|
E|--0-0-0-0--0-0-0-0---0-0-0-0--0-0-0-0---2-2-2-2-2-2-2-2---------------|
    FAREWELL                              DIDN’T MEAN TO LET YOU

e|----------------------------------------------------------------------|
B|----------------------------------------------------------------------|
G|-------------------------------------------4-4------------------------|
D|--2-2----6-6---4-4--4-4------2-2---6-6---4-4-4-4-4--------------------|
A|--2-2----6-6---4-4--4-4------2-2---6-6---4-2-2-4-4--------------------|
E|--0-0----4-4---2-2--2-2------0-0---4-4---2-----2-2--------------------|
    DOWN

Bridge
e|-----------------------------------------------------------------------|
B|-----------------------------------------------------------------------|
G|-----------------------------------------------------------------------|
D|--6-6-6--6-6-6--6-6-6--6-6-6---4-4-4--4-4-4--4-4-4--4-4-4--------------|
A|--6-6-6--6-6-6--6-6-6--6-6-6---4-4-4--4-4-4--4-4-4--4-4-4--------------|
E|--4-4-4--4-4-4--4-4-4--4-4-4---2-2-2--2-2-2--2-2-2--2-2-2--------------|
    IT’S SUCH A SHAME            HOW DID WE END UP THIS WAY

e|-----------------------------------------------------------------------|
B|-----------------------------------------------------------------------|
G|-----------------------------------------------------------------------|
D|--2-2-2--2-2-2--2-2-2--2-2-2---4-4-4--4-4-4--4-4-4--4-4-4--------------|
A|--2-2-2--2-2-2--2-2-2--2-2-2---4-4-4--4-4-4--4-4-4--4-4-4--------------|
E|--0-0-0--0-0-0--0-0-0--0-0-0---2-2-2--2-2-2--2-2-2--2-2-2--------------|
    WE CAN’T GO BACK             AND THINGS WILL NEVER BE THE SAME

e|-----------------------------------------------------------------------|
B|-----------------------------------------------------------------------|
G|-----------------------------------------------------------------------|
D|--6-6-6--6-6-6--6-6-6--6-6-6---4-4-4--4-4-4--4-4-4--4-4-4--------------|
A|--6-6-6--6-6-6--6-6-6--6-6-6---4-4-4--4-4-4--4-4-4--4-4-4--------------|
E|--4-4-4--4-4-4--4-4-4--4-4-4---2-2-2--2-2-2--2-2-2--2-2-2--------------|
    ALL HOPES FADED              IS THIS WHAT YOU WANTED

e|-----------------------------------------------------|
B|-----------------------------------------------------|
G|-----------------------------------------------------|
D|--2---2---2---2-------------2---2---2---2------------|
A|--2---2---2---2-------------2---2---2---2------------|
E|--0---0---0---0-------------0---0---0---0------------|
    IS THIS WHAT YOU WANTED

e|-------------------------------------------------------------------------------|
B|-------------------------------------------------------------------------------|
G|----11---11---11---11----11---11---11---11----11---11---11---11-----11---11----|
D|--9----9----9----9-----9----9----9----9-----9----9----9----9------9----9-------|
A|-------------------------------------------------------------------------------|
E|-------------------------------------------------------------------------------|
   FAREWELL DIDN’T MEAN TO LET YOU

e|-----------------------------------------------------------------------|
B|-----------------------------------------------------------------------|
G|---------------4-4-----------------------------------------------------|
D|--2-2----------4-4-----------------4-4-4-4-X--4-4-4-4-X----------------|
A|--2-2----------2-2-----------------4-4-4-4-X--4-4-4-4-X----------------|
E|--0-0------------------------------2-2-2-2-X--2-2-2-2-X----------------|
    TO LET       TO MESS     WE BOTH KNEW IT COULDN’T LAST FOREVER
    YOU DOWN     IT UP

e|-----------------------------------------------------------------------|
B|-----------------------------------------------------------------------|
G|---------------4-4-4-4-X-----------------------------------------------|
D|--2-2-2-2-X----4-4-4-4-X-------------4-4-4-4-X--4-4-4-4-X--------------|
A|--2-2-2-2-X----2-2-2-2-X-------------4-4-4-4-X--4-4-4-4-X--------------|
E|--0-0-0-0-X--------------------------2-2-2-2-X--2-2-2-2-X--------------|
    IT’S COMING  I’VE HAD   I GUESS WE CRUMBLED UNDER ALL THE PRESSURE
    DOWN         ENOUGH

e|-----------------------------------------------------------------------|
B|-----------------------------------------------------------------------|
G|------------------------------4-4-4-4-X--------------------------------|
D|--6-6-6-6-X----2-2-2-2-X------4-4-4-4-X--------4-4-4-4-X---------------|
A|--6-6-6-6-X----2-2-2-2-X------2-2-2-2-X--------4-4-4-4-X---------------|
E|--4-4-4-4-X----0-0-0-0-X-----------------------2-2-2-2-X---------------|
    DID MY BEST  FOR WHAT IT’S  AND I GIVE YOU   HEART COULD GIVE SO
               WORTH          ALL THIS

e|----------------------------------------------------------------------|
B|----------------------------------------------------------------------|
G|----------------------------------------------------------------------|
D|--2-2-2-2--2-2-2-2---2-2-2-2--2-2-2-2---4-4-4-4-4-4-4-4---------------|
A|--2-2-2-2--2-2-2-2---2-2-2-2--2-2-2-2---4-4-4-4-4-4-4-4---------------|
E|--0-0-0-0--0-0-0-0---0-0-0-0--0-0-0-0---2-2-2-2-2-2-2-2---------------|
    FAREWELL                              DIDN’T MEAN TO LET YOU

e|----------------------------------------------------------------------|
B|----------------------------------------------------------------------|
G|----------------------------------------------------------------------|
D|--2-2-2-2--2-2-2-2---2-2-2-2--2-2-2-2---4-4-4-4-4-4-4-4---------------|
A|--2-2-2-2--2-2-2-2---2-2-2-2--2-2-2-2---4-4-4-4-4-4-4-4---------------|
E|--0-0-0-0--0-0-0-0---0-0-0-0--0-0-0-0---2-2-2-2-2-2-2-2---------------|
    FAREWELL                              DIDN’T MEAN TO LET YOU

e|----------------------------------------------------------------------|
B|----------------------------------------------------------------------|
G|-------------------------------------------4-4------------------------|
D|--2-2----6-6---4-4--4-4------2-2---6-6---4-4-4-4-4--------------------|
A|--2-2----6-6---4-4--4-4------2-2---6-6---4-2-2-4-4--------------------|
E|--0-0----4-4---2-2--2-2------0-0---4-4---2-----2-2--------------------|
    DOWN

e|----------------------------------------------------------------------|
B|----------------------------------------------------------------------|
G|-------------------------------------------4-4------------------------|
D|--2-2----6-6---4-4--4-4------2-2---6-6---4-4-4-4-4--------------------|
A|--2-2----6-6---4-4--4-4------2-2---6-6---4-2-2-4-4--------------------|
E|--0-0----4-4---2-2--2-2------0-0---4-4---2-----2-2--------------------|
    FAREWELL

***************************

x dead note

***************************

            
            
Suggest correction
Creating personal tab
Creating personal tab
You can edit any tab online and save it as your Personal.

You can edit, replace or remove any tab part or add personal notes – all changes will be seen only by you.

Personal tabs can be accessed anytime from any device, even offline.
Learn more »
Give kudos to tab author, rate the tab!
1 2 3 4 5
comments
print report bad tab
guest
You may want to rate the tab now too:
select rating
Wanna post a correction for this tab? Suggest correction