Oops, an error
Loading. Please wait.

Freaking Me Out Tab

version 1
version 1

Whole song

Interactive

2,261 views 15 this week
no commentswrite comment
1 2 3 4 5
excellent!
x 2
add to favorites
launch autoscroll
font size
0
reset
how to read this tab
guitar tuner
Tab Pro tools
  • play this tab
  • loop segment
  • change instrument
  • show fretboard
  • metronome
Autoscroll
slow
fast
+/-
esc
set tempo
stop
Contributor
Difficulty
CANCION:FREAKING ME OUT
BANDA:SIMPLE PLAN FT ALEX GASKARTH
AFINACION:GUITARRA 1   E B G D A E
          GUITARRA 2   E B G D A E
ENTABLADA POR:FENDERSTRATO000
EMAIL:carlos_drumcover@hotmail.com

*=PM
/=DESLIZAR ADELANTE
\=DESLIZAR ATRAS
h=HAMMER ON

+++++++
+INTRO+

+++++++
GUITARRA 1

E---------------------------------------------------|
B---------------------------------------------------|
G---------------------------------------------------|
D---------------------------------------------------|
A -----------8------------8-----------8-------------|
E 8--8--8-11---8--8--8-11---8--8--8-11---8--8-11-10-|


GUITARRA 2

E----------------|
B----------------|
G----------------|
D----------------|
A----------------|
E-8(x32)----/11\-|

++++++++++
+PREVERSO+
++++++++++
GUITARRA 1 (X2)
E----------------------|
B----------------------|
G----------------------|
D-10----6----3----8----|
A-10(X8)6(X8)3(X8)8(X8)
E--8----4----1----6----

GUITARRA 2 (X2)

E--------------------------------------------------------------------------------------------------|
B-13-13-11-11-------11-11-------------11-11-------13-13-11-11--------------------------------------|
G-------------12-12-------------12-12-------12-12-------------12-12--------------------------------|
D-------------------------13-13-------------------------------------13-13-12-12-13-13-12-12-10-10--|
A--------------------------------------------------------------------------------------------------|
E--------------------------------------------------------------------------------------------------|

+++++++
+VERSO+
+++++++
GUITARRA 1
 (------------X3--------------)#(------------X1---------------|
E------------------------------#------------------------------|
B------------------------------#------------------------------|
G------------------------------#------------------------------|
D------------------------------#------------------------------|
A-10(X8)--12(X8)--8(X8)--15(X8)#-10(X8)--12(X8)--8(X12)6------|(X4)
E--8------10------6------13----#--8------10------6-----4\-----|
   *       *      *       *       *       *      *     *
GUITARRA 2
 (------------X3--------------------------)#(------------X1---------------|
E----------0-------------------------------#------------------------------|
B------------------------------------------#------------------------------|
G------------------------------------------#------------------------------|
D-10(X8)--12(X8)--8(X8)--15(X4)-15h17-15h17#-10(X8)--12(X8)--8(X12)6------|(X4)
A------------------------------------------#------------------------------|
E------------------------------------------#------------------------------|
   *       *      *       *                   *       *      *     *
++++++
+CORO+
++++++
GUITARRA 1
 (---------X2----------)#-----------------------------------------|
E-----------------------#-----------------------------------------|
B-----------------------#-----------------------------------------|
G-------8----10---------#-------8----------------------8----------|
D-10----8(X8)10(X8)8----#-10----8(X16)8-----6----10----8(X8)8-----|
A-10(X8)6-----8----8(X8)#-10(X8)6-----8(X8)-6(X8)10(X8)6----------|8(X8)
E--8---------------6----#--8----------6-----4-----8---------6-----|

GUITARRA 2
 (---------X2------------)#-------------------------------------------|
E-------------------------#-------------------------------------------|
B-------------------------#-------------------------------------------|
G-12(X8)15(X8)17(X8)10(X8)#-12(X8)15(X16)10(X8)8(X8)12(X8)15(X8)10(X8)|
D-10----13----15-----8----#-10----13------8----6----10----13-----8----|
A-------------------------#-------------------------------------------|
E-------------------------#-------------------------------------------|

+++++++
+INTRO+
+++++++

+++++++
+VERSO+
+++++++

++++++
+CORO+
++++++

++++++++
+BRIDGE+
++++++++
GUITARRA 1
(NO HAY GUITARRA PERO PUEDEN HACER LO DEL INTRO)

GUITARRA 2
(NO HAY GUITARRA PERO PUEDEN HACER LO SIGUIENTE)

E-----------------|
B-----------------|
G-----------------|
D.10~-12~-13~-15~-|
A--X---X---X---X--|
E--8~-10~-11~-13~-|

++++++
+CORO+
++++++

+++++++
+INTRO+
+++++++

+++++++
+OUTRO+ (AMBAS GUITARRAS)
+++++++
E--------------|
B--------------|
G--------------|
D-10-10-10-10\-|
A--X--X--X-----|X\
E--8--8--8--8\-|

SALUDOS AL AMOR DE MI VIDA!!!!!!!!
TEEE AMMOOOO EVELYN!!!!!
GRACIAS POR PERDONARME Y REGRESAR CONMIGO DESPUES DE LO Q TE HIZE
AAAA Y SALUDOS AL CHAMPI Y AL PAVO Y DEIANIRA y al p3p3.
comments
We did not receive enough feedback on this tab! Please rate:
print report bad tab
1 2 3 4 5
I want to post or [tab]
guest
You may want to rate the tab now too:
select rating
Please do not post tabs as comments. Select "correction" instead!