Oops, an error
Loading. Please wait.

Generation Bass Tab

version 1
version 1

Whole song

Interactive

4,426 views 1 this week
2 commentsread comments
1 2 3 4 5
2 more votes to show rating
add to favorites
launch autoscroll
font size
0
reset
guitar tuner
Autoscroll
slow
fast
+/-
esc
set tempo
stop
Help us to improve Ultimate-Guitar.com Take our survey!
×
Author
Difficulty
intermediate
this is my first tab so I might not be right but I think I am.


:14
Intro:
-------------------------------------]
--------------------------1----------]
2-1-------1---------2--24---4-2-1----] x2
----4-2-4---2-4--------------------4-]

Verse:
don't play

pre-chorus:
-----------------------------------------]
-----------------------------------------]
-----------------------------------------]
000-22---222-4--4--4---x3-----0---000002-]

chorus:
-----------------------------------------------------------------------]
-----2222-----------------2222----------------2222------------22222224-]
------------------------------------21-------------------4444----------]
4-44------2-222222---4-44------2-22----42-4-44------2222---------------]

intro 

Intro2:
                only play this first time
                 [''''''''''''''''''']
-------------------------------------]
--------------------------1----------]
2-1-------1---------2--24---4-2-1----] x2
----4-2-4---2-4--------------------4-]


pre-chorus 

Bridge:
don't play

Chorus x2
Suggest correction
Give kudos to tab author, rate the tab!
1 2 3 4 5
comments
print report bad tab
2 comments total.
0 reply
ifranky_boy 10 May 01, 2008 04:16 PM

That's really good! Even the tune right.

0 reply
TommyGun91 903 Jul 24, 2009 01:57 PM

It's tuned half step down :)
But it's perfect (Y)

guest
You may want to rate the tab now too:
select rating
Wanna post a correction for this tab? Suggest correction