Oops, an error
Loading. Please wait.

God Must Hate Me Tab

version 3
version 3

Intro

Whole song

Interactive

2,889 views 1 this week
no commentswrite comment
1 2 3 4 5
accurate
x 5
add to favorites
launch autoscroll
font size
0
reset
how to read this tab
guitar tuner
Tab Pro tools
  • play this tab
  • loop segment
  • change instrument
  • show fretboard
  • metronome
Autoscroll
slow
fast
+/-
esc
set tempo
stop
Contributor
9.God must hate me
Intro (2 Guitars - bend the notes ~1/4)           2nd time ending
    i think this is in the right octive...might be high though
e|------------------------------------------------|--------|
B|-12---14---12---121214---12---14--15T--14-14-14-|-\\12---|
G|---11---11---11-111111-----11---11--------------|--------|
D|------------------------------------------------|--------|
A|------------------------------------------------|--------|
E|------------------------------------------------|--------|
 |                                                |     |
 |                                                |     | x2
e|------------------------------------------------|-----|
B|------------------------------------------------|-----|
G|-4--4--------------------4--4-------------------|--4--|
D|-4--4--4--4--2--2--444---4--4--4--4--2222-5-5-5-|--x--|
A|-2--2--4--4--2--2--444---2--2--4--4--2222-5-5-5-|--2--|
E|-------2--2--0--0--222---------2--2--0000-3-3-3-|-----|

Verse1 - Bass

Pre-Chorus (2 Guitars)
e| ----------------------------------------------|
B| ----------------------------------0-----------|
G| -------------------------6---6----4-----------|
D| ---2----4---------------4-4-4-4--2-4----------|
A| --2-2--4-4--9--9--6--4-4---4----2----44444444-|
E| -0----2----7--6--4--2----------------22222222-|
 |                                               |
 |                                               |x1
e| ----------------------------------------------|
B| ----------------------------------------------|
G| ----------------------------------------------|
D| ----------------------------------------------|
A| -2222-4444-99-99-66-44-44444444-2222-44444444-|
E| -0000-2222-77-66-44-22-11111111-0000-22222222-|
    **** ****

Chorus (2 Guitars play same thing)
e|----------------------------------------------|
B|----------------------------------------------|
G|-4--4-------------------4--4------------------|
D|-4--4--4--4--2--2--444--4--4--4--4--2--2--444-| x1
A|-2--2--4--4--2--2--444--2--2--4--4--2--2--444-|
E|-------2--2--0--0--222--------2--2--0--0--222-|

Post-Chorus (2 Guitars)
e| ---------------------|
B| ---4----4------------|
G| --4-4--4-4-----------|
D| ---------------------|
A| -----------2-2-2-2-4-|
E| -4----1----0-0-0-0-2-|
 |                      |
 |                      | x1
e| ---------------------|
B| ---------------------|
G| ---------------------|
D| ---------------------|
A| -2222-4444-2-2-2-2-4-|
E| -4444-1111-0-0-0-0-2-|

Repeat "Intro 2nd time thru"

Verse2 - Bass Again!

Pre-Chorus (2 Guitars)
e| ----------------------------------------------|
B| ----------------------------------0-----------|
G| -------------------------6---6----4-----------|
D| ---2----4---------------4-4-4-4--2-4----------|
A| --2-2--4-4--9--9--6--4-4---4----2----44444444-|
E| -0----2----7--6--4--2----------------22222222-|
 |                                               |
 |                                               |x1
e| ----------------------------------------------|
B| ----------------------------------------------|
G| ----------------------------------------------|
D| ----------------------------------------------|
A| -2222-4444-99-99-66-44-44444444-2222-44444444-|
E| -0000-2222-77-66-44-22-11111111-0000-22222222-|
    **** ****

Chorus (2 Guitars play same thing)
e|----------------------------------------------|
B|----------------------------------------------|
G|-4--4-------------------4--4------------------|
D|-4--4--4--4--2--2--444--4--4--4--4--2--2--444-| x1
A|-2--2--4--4--2--2--444--2--2--4--4--2--2--444-|
E|-------2--2--0--0--222--------2--2--0--0--222-|

Post-Chorus (2 Guitars)
e| -------------------------|
B| ---4----4----4-----------|
G| --4-4--4-4--4-4----------|
D| -------------------------|
A| ----------------44444444-|
E| -4----1----0----22222222-|
 |                          | x1
e| -------------------------|
B| -------------------------|
G| -------------------------|
D| -------------------------|
A| -2222-4444-2222-44444444-|
E| -4444-1111-0000-22222222-|


Bridge (2 Guitars with the 2nd guitar having ?Tremolo effect?)
       (by the way, the notes aren't really accurate for this part)
e| -------------14-14-------14-14-14-------12-12-12------------|
B| -12-12-11-11-------12-11----------12-11----------14-14------|
G| ------------------------------------------------------------|
D| ------------------------------------------------------------|
A| ------------------------------------------------------44444-|
E| ------------------------------------------------------22222-|
 |                                                             |
 |                                                             | x1
e| ------------------------------------------------------------|
B| ------------------------------------------------------------|
G| ----------------------------4-4-----------------------------|
D| ----------------------------4-4-2---------------------------|
A| -22222222-44444444-22222222-2-2-2-222222222222-444444444444-|
E| -00000000-22222222-00000000-----0-000000000000-222222222222-|
    ******** ******** ********       ************ *******


e| ---------------|
B| ---------------|
G| ---------------|
D| ----------6889-|
A| ----667-99-----|
E| -779-----------|
 |                | x1
e| ---------------|
B| ---------------|
G| ---------------|
D| ---------------|
A| -4444444444444-|
E| -2222222222222-|


Chorus (2 Guitars play same thing; notice the key change!)
e|----------------------------------------------|
B|----------------------------------------------|
G|-6--6-------------------6--6------------------|
D|-6--6--6--6--4--4--666--6--6--6--6--4--4--666-| x2
A|-4--4--6--6--4--4--666--4--4--6--6--4--4--666-|
E|-------4--4--2--2--444--------4--4--2--2--444-|

Post-Chorus
e| -------------------------|
B| ---6----6----6-----------|
G| --6-6--6-6--6-6----------|
D| -------------------------|
A| ----------------66666666-|
E| -6----3----2----44444444-|
 |                          |
 |                          | x1
e| -------------------------|
B| -------------------------|
G| -------------------------|
D| -------------------------|
A| -4444-6666-4444-66666666-|
E| -6666-3333-2222-44444444-|

Chorus (2 Guitars play same thing)
e|----------------------------------------------|
B|----------------------------------------------|
G|-6--6-------------------6--6------------------|
D|-6--6--6--6--4--4--666--6--6--6--6--4--4--666-| x1
A|-4--4--6--6--4--4--666--4--4--6--6--4--4--666-|
E|-------4--4--2--2--444--------4--4--2--2--444-|


Chorus (2 Guitars play same thing)
e|----------------------------------------------|
B|----------------------------------------------|
G|-xxx6-------------------xxx6------------------|
D|-xxx6--xxx6--4--4--666--xxx6--xxx6--4--4--666-| x1
A|-xxx4--xxx6--4--4--666--xxx4--xxx6--4--4--666-|
E|-------xxx4--2--2--444--------xxx4--2--2--444-|

Ending
e|---------------------|
B|---------------------|
G|-6-6-6-6-------------|
D|-6-6-6-6--6-6-6-6--4-| x1
A|-4-4-4-4--6-6-6-6--4-|
E|----------4-4-4-4--2-|
comments
print report bad tab
I want to post or [tab]
guest
You may want to rate the tab now too:
select rating
Please do not post tabs as comments. Select "correction" instead!