Oops, an error
Loading. Please wait.

God Must Hate Me tab

version 4
version 4

Whole song

Interactive

1,124 views 1 this week
1 commentread comment
1 2 3 4 5
1 last vote to show rating
add to favorites
×
Save as Personal and add changes to this tab that will be seen only by you. Learn more ›
×
You can save this tab as Personal to edit and correct it or add notes. All changes will be seen only by you. Learn more »
launch autoscroll
font size
0
reset
how to read this tab
guitar tuner
edit
Autoscroll
slow
fast
+/-
esc
set tempo
stop
Author
Band: Simple Plan
Song: God Must Hate Me
Album: No Pads, No Helmets... Just Balls
Tuning: Half-Step Down

INTRO: (Guitar 1)
e|------------------------------------------------|
B|----10b-8-12b-8-13b-13b-13b-13b-13b-13b-13-12---|
G|------------------------------------------------|
D|------------------------------------------------|
A|------------------------------------------------|
E|------------------------------------------------|


e|----------------------------------------------------|
B|----10b-8-12b-8-13b-13b-13b-13b-13b-13b-14b-14b-14b-|
G|----------------------------------------------------|
D|----------------------------------------------------|
A|----------------------------------------------------|
E|----------------------------------------------------|

Repeat both both of those two times, and end on:

e|----------|
B|----------|
G|----13----|
D|----------|
A|----------|
E|----------|

(Guitar 2)                                       End on:
e|--------------------------------------------|  |-----|
B|--------------------------------------------|  |-----|
G|----5-5-----------------5-5-----------------|x2|--5--|
D|----5-5-5-5-3-33-333-5--5-5-55-333333-5-5-5-|  |--5--|
A|----3-3-5-5-3-33-333-5--3-3-55-333333-5-5-5-|  |--3--|
E|--------3-3-1-11-111-3------33-111111-3-3-3-|  |-----|

VERSE:
Bass only.

PRE-CHORUS: (Guitar 1)
e|----------------------------------------3-------|
B|--------------------------------------3---3---3-|
G|--------------------------------------------0---| Or something very close.
D|--------3-----5---5-----------------3-----------|
A|------3-----5---3-----8---7---5---3-------------|
E|----1-----3---------7---5---3---1---------------|

e|--------------------------------------------|  
B|--------5-------8---------------------------|
G|------5---5---7---7-------------------------|
D|----3-------5-------------------------------|
A|--------------------------------------------|
E|--------------------------------------------|

(Guitar 2)
e|--------------------------------------------|
B|--------------------------------------------|
G|--------------------------------------------|
D|----3-33-33-33-3-5-55-55-55-5---------------|
A|----3-33-33-33-3-5-55-55-55-5---------------|
E|----1-11-11-11-1-3-33-33-33-3---------------|
 PM   . .. .. .. . . .. .. .. .
e|--------------------------------------------|
B|--------------------------------------------| 
G|----5-5-4-4---------------------------------|
D|----5-5-4-4-7-7-5-5-33333333-55555555-------|
A|----3-3-2-2-7-7-5-5-33333333-55555555-------|
E|------------5-5-3-3-11111111-33333333-------|
 PM   . . . . . . . . ........ ........

CHORUS: (Guitar 1) Listen for timing.
e|-------------|
B|------5------|
G|----5---5----|
D|-------------|(x2)
A|-------------|
E|-------------|

(Guitar 2)
e|--------------------------------------------|  
B|--------------------------------------------| 
G|----5-5-----------------5-5-----------------|
D|----5-5-5-5-3-33-333-5--5-5-55-3-33-333-5---|  
A|----3-3-5-5-3-33-333-5--3-3-55-3-33-333-5---|  
E|--------3-3-1-11-111-3------33-1-11-111-3---|  

e|-----------------------|  
B|-----------------------| 
G|-----------------------|
D|----7777-5555-3333-5---|
A|----7777-5555-3333-5---|
E|----5555-3333-1111-3---|

INTERLUDE: (Guitar 1)
e|--------------------------------------------|  
B|--------6-----8-----------------------------|
G|------5-----7---7---------------------------| (x?) (Listen to song)
D|----3-----5---------------------------------|
A|--------------------------------------------|
E|--------------------------------------------|

(Guitar 2)
e|--------------------------------------------------|  
B|--------------------------------------------------| 
G|----------------------------------------5-55-5----|
D|----3-33-33-333-5-55-55-555-3-33-33-333-5-55-5-5--|
A|----3-33-33-333-5-55-55-555-3-33-33-333-3-33-3-5--|
E|----1-11-11-111-3-33-33-333-1-11-11-111--------3--|
 PM   . .. .. ... . .. .. ... . .. .. ... . .. . .

e|--------------------------------------------------|  
B|--------------------------------------------------| 
G|--------------------------------------------------|
D|----3-33-33-333-5-55-55-55-55---------------------|
A|----3-33-33-333-5-55-55-55-55---------------------|
E|----1-11-11-111-3-33-33-33-33---------------------|
 PM   . .. .. ... 

CHORUS AFTER INTERLUDE: Same thing, just played a bit higher.
(Guitar 1) Again, listen for timing.
e|-------------|
B|------7------|
G|----7---7----|
D|-------------|(x2)
A|-------------|
E|-------------|

(Guitar 2)
e|--------------------------------------------|  
B|--------------------------------------------| 
G|----7-7-----------------7-7-----------------|
D|----7-7-7-7-5-55-555-7--7-7-77-5-55-555-7---| Play over and over  
A|----5-5-7-7-5-55-555-7--5-5-77-5-55-555-7---|  
E|--------5-5-3-33-333-5------55-3-33-333-5---|    


e|-----------------------|  
B|-----------------------| 
G|-----------------------|
D|----9999-7777-5555-7---|
A|----9999-7777-5555-7---|
E|----7777-5555-3333-5---|

And that's it.

Not too difficult, eh?

-END

            
            
Suggest correction
Creating personal tab
Creating personal tab
You can edit any tab online and save it as your Personal.

You can edit, replace or remove any tab part or add personal notes – all changes will be seen only by you.

Personal tabs can be accessed anytime from any device, even offline.
Learn more »
Give kudos to tab author, rate the tab!
1 2 3 4 5
comments
print report bad tab
1 comment total.
0 reply
finalheaven 31 May 19, 2007 11:34 PM

I wonder how the fark did this thing get a 4-star rating...

|--------------------------------------------------|
|---12b13----14b15----12-12-12-12-12b13--14b15-----|
|---------12-------12------------------------------|
|--------------------------------------------------|
|--------------------------------------------------|
|--------------------------------------------------|

|--------------------------------------------------|
|---12b13----14b15----14-14-14-14-14---14.14.14----|
|---------12-------12------------------------------|
|--------------------------------------------------|
|--------------------------------------------------|
|--------------------------------------------------|

I made that up just then and it sounds better than yours.

guest
You may want to rate the tab now too:
select rating
Wanna post a correction for this tab? Suggest correction