Oops, an error
Loading. Please wait.

Happy Together tab

version 1
version 1

Whole song

Interactive

25,048 views 12 this week
6 commentsread comments
1 2 3 4 5
x 8
add to favorites
×
Save as Personal and add changes to this tab that will be seen only by you. Learn more ›
×
You can save this tab as Personal to edit and correct it or add notes. All changes will be seen only by you. Learn more »
launch autoscroll
font size
0
reset
how to read this tab
guitar tuner
edit
Autoscroll
slow
fast
+/-
esc
set tempo
stop
Author
----------------------------------------------------------------------------
                        HAPPY TOGETHER - Simple Plan
----------------------------------------------------------------------------

Artist: Simple Plan
Song: Happy Together (Freaky Friday soundstrack)
Tabbed by: Cou-sin
Email: gerralt_landman@hotmail.com

This is my first tab, I couldn't find a good tabbed version of this song so I figured
it out myself. I hope I did it right, if there are any comments you can e-mail me

Tuning: E

Guitar 1 - Turn volume up
e|----|
B|----|
G|----|
D|-2--|
A|-2--|
E|-0--|

Guitar 2 - Turn volume up
e|----|
B|-10-|
G|----|
D|----|
A|----|
E|----|

INTRO:
                                      
Guitar 1 
e|------------------------|-----------------------|-----------------|
B|------------------------|-----------------------|-----------------|
G|------------------7*----|--x—7--x-6--x-4--x-2---|------7*---------|
D|-x-x-x-x-x-x--7-2-7-----|--x-7--x-6--x-4--x-2---|--7-2-7----------|
A|-x-x-x-x-x-x--7-2-5-----|--x-5--x-4--x-2--x-0---|--7-2-5----------|
E|-x-x-x-x-x-x--5-0-------|-----------------------|--5-0------------|

*these two parts have a weird rhythm in it, each chord is played 8 times, 
listen to the song to figure it out 

Guitar 2
e|------------------------|-----------------------|-------------------|
B|------------------------|-----------------------|-------------------|
G|------14------14-19~----|--x-19-x-18-x-16-x-14--|-------14---14-19~-|
D|-14~----14~-------------|--x--x-x--x-x--x-x--x--|--14~---14~--------|
A|------------------------|--x—17-x-16-x-14-x-12--|-------------------|
E|------------------------|-----------------------|-------------------|

VERSE 1:

Guitar 1 - Repeat twice - play this palm muted
e|-------------------------------------------------------------------------|
B|-------------------------------------------------------------------------|
G|-------------------------------------------------------------------------|
D|----------------11\9--------------9\7-------------7\6---------------6/11-|
A|-9-9-9--9-9-9—9-9-\7-7-7--7-7-7-7—5\5-5--5-5-5-5--5\4-4-4--4-4-4-4-—4/9--|
E|-------------------------------------------------------------------------|

Guitar 2 - Plays this when guitar 1 repeats the first part. 
           It has an echo with it 
e|----------------------------|
B|-------9~------9~----5~-----|
G|----9--------9-----7----10~-|
D|-11-------11----------------|
A|----------------------------|
E|----------------------------|

CHORUS:

Repeat this twice - play every chord 8 times
e|---------------|
B|---------------|
G|---------------|
D|--4--2--4--7---|
A|--4--2--4--7---|
E|--2--0--2--5---|

VERSE 2:

Guitar 1 - First part - Play this palm muted
e|-------------------------------------------------------------|
B|-------------------------------------------------------------|
G|-------------------------------------------------------------|
D|-11-11---11-11-11---9-9--9-9-9---7-7--7-7-7---6-6--6-6-6-----|
A|-9--9----9--9—-9----7-7--7-7-7—--5-5--5-5-5---4-4--4-4-4--—--|
E|-------------------------------------------------------------|

Guitar 1 - Second part - Play this palm muted
e|-------------------------------------------------------------------------|
B|-------------------------------------------------------------------------|
G|-------------------------------------------------------------------6--6*-|
D|-11-11---11-11-11--11\9-9-9--9-9-9---9\7-7-7--7-7-7---7\6-6-6--6-6-6--6--|
A|-9--9----9--9—-9---9-\7-7-7--7-7-7—--7\5-5-5--5-5-5---5\4-4-4--4-4-4--4—-|
E|-------------------------------------------------------------------------|

*Before the chorus starts repeat this chord 7 times

Guitar 2 - Plays this when guitar 1 repeats the first part. 
           With the echo with it 
e|----------------------------|
B|-------9~------9~----5~-----|
G|----9--------9-----7----10~-|
D|-11-------11----------------|
A|----------------------------|
E|----------------------------|

CHORUS 2x

SOLO:

Guitar 1 - Repeat this 4 times | End with this |
e|-----------------------------|---------------|
B|-----------------------------|---------------|
G|-----------------------------|---------------|
D|-4--7--2--2-2-2-2-2----------|--2-3-2--------|
A|-4--7--2--2-2-2-2-2----------|--2-3-4--------|
E|-2--5--0--0-0-0-0-0----------|--0-1-4--------|

Guitar 2 - The first part is played quite fast
e|-----------------|-----------------------------------|
B|-----------------|-------12---14-12----15-14-12*~----|
G|-----------------|-11-14------------14---------------|
D|---------9-11-12-|-----------------------------------|
A|-9-11-12---------|-----------------------------------|
E|-----------------|-----------------------------------|
*here they use a wah pedal

e|---------------------12-12-12~--12\2----|
B|-------12---14-12-----------------------|
G|-11-14------------14--------------------|
D|----------------------------------------|
A|----------------------------------------|
E|----------------------------------------|

BRIDGE:

Guitar 2 - Without distortion

e|--5--4--2---5-4-2--|
B|-------------------|
G|-------------------|
D|-------------------|
A|-------------------|
E|-------------------|


Guitar 1 - After guitar 2
e|--------------------|
B|--------------------|
G|--6--6--6666--6666--|
D|--6--6--6666--6666--|
A|--4--4--4444--4444--|
E|--------------------|

CHORUS 2x

END:

Guitar 1 - play each chord 8 times - repeat 6 times
e|---------|
B|---------|
G|-6-------|
D|-6--4----|
A|-4--4----|
E|----2----|

Guitar 2 - repeat this note several times till the end

e|-9--|
B|----|
G|----|
D|----|
A|----|
E|----|


| /  slide up
| \  slide down
| h  hammer-on
| p  pull-off
| ~  vibrato
| +  harmonic
| x  Mute note
==========================================================================

            
            
Suggest correction
Creating personal tab
Creating personal tab
You can edit any tab online and save it as your Personal.

You can edit, replace or remove any tab part or add personal notes – all changes will be seen only by you.

Personal tabs can be accessed anytime from any device, even offline.
Learn more »
comments
print report bad tab
6 comments total. Showing first comments.
+1 reply
w00ts!te 167 Jul 04, 2005 08:00 PM

Awsome Tab!!
Been waiting for this one.

0 reply
freakyguitarman 21 May 14, 2006 10:46 AM

shit

0 reply
freakyguitarman 21 May 14, 2006 10:46 AM

Just kidding, this tab rocks.

guest
You may want to rate the tab now too:
select rating
Wanna post a correction for this tab? Suggest correction