Oops, an error
Loading. Please wait.

Happy Together Live tab

version 2
version 2

Whole song

Interactive

2,018 views 3 this week
1 commentread comment
1 2 3 4 5
1 last vote to show rating
add to favorites
×
Save as Personal and add changes to this tab that will be seen only by you. Learn more ›
×
You can save this tab as Personal to edit and correct it or add notes. All changes will be seen only by you. Learn more »
launch autoscroll
font size
0
reset
how to read this tab
guitar tuner
edit
Autoscroll
slow
fast
+/-
esc
set tempo
stop
Author
Difficulty
                        HAPPY TOGETHER - Simple Plan

Artist: Simple Plan
Song: Happy Together (Cover of Happy Together by the Turtles)

I really like this cover of this classic song. Here is how they play it live.

Tuning: Standard

They use a lot of effect pedals when live, both guitars have a reverb effect on most of the performance

Chords:

A5  Em   D5   Db5/C#5    B5
x   x    x      x        x
x   x    x      x        x
x   x    7      6        4
7   2    7      6        4
7   2    5      4        2
5   0    x      x        x


INTRO: It sounds like single notes OR it could be in octives, w/e you think
                                      
Guitar 1 
e|------|------------------------|---------------|
B|------|------------------------|---------------|
G|------|------------------------|---------------|
D|------|------------------------|---------------|
A|--7/--|-7---9-7/17-17-16-14-16-|-7---9-7-7/17/-|
E|------|------------------------|---------------|

Guitar 2: A5  Em  D5 D5 Db5B5 Db5  A5  Em    D5


VERSE 1:

Guitar 1: Play this twice
e|-------------------|------------------|---------------|------------------|
B|-------------------|------------------|---------------|------------------|
G|-------------------|------------------|---------------|------------------|
D|----------------11-/-9--------------9-/-7-----------7-/-6----------------|
A|-9-9-9--9-9-9—9-9--/-7-7-7--7-7-7-7—7-/-5-5-5-5-5-5-5-/-4-4-4--4-4-4-4-4-|
E|-------------------|------------------|---------------|------------------|
PM * * *  * * * *        * *  * * * *       * * * * *       * *  * * * *

Guitar 2 -Comes in on second repeating w/ a heavy delay/echo effect
e|-----------|-----------|---------|-----|
B|-------9~--|-------9~--|------5~-|-----|
G|----9------|-----9-----|----7----|-10~-|
D|-11--------|--11-------|--7------|-----|
A|-----------|-----------|---------|-----|
E|-----------|-----------|---------|-----|Not sure if this is 100% correct

CHORUS:
e|-----------------------------------|    |------|
B|-----------------------------------|    |------|
G|-----------------------------------|    |------|
D|--4-4-4-4-2-2-2-2-4-4-4-4-7-7-7-7--|    |--7/--|
A|--4-4-4-4-2-2-2-2-4-4-4-4-7-7-7-7--|    |--7/--|
E|--2-2-2-2-0-0-0-0-2-2-2-2-5-5-5-5--| x2 |--5/--|

VERSE 2:

Guitar 1 - First part - Play this palm muted
e|--------------------------------------------------|
B|--------------------------------------------------|
G|--------------------------------------------------|
D|-11-11---11--11--9-9--9--9--7-7--7--7--6-6--6--6~-|
A|-9--9----9---9—--7-7--7--7--5-5--5--5--4-4--4--4~-|
E|--------------------------------------------------| 
 |
Guitar 2 
e|--------------------------------------------------|
B|--------------------------------------------------|
G|--x-x-x-x-x-x-x-x-x-x-x-x-x-x-x-x-x-x-x--x-x--x-x-|
D|--x-x-x-x-x-x-x-x-x-x-x-x-x-x-x-x-x-x-x-x-x-x-x-x-|
A|--x-x-x-x-x-x-x-x-x-x-x-x-x-x-x-x-x-x-x-x-x-x-x-x-|
E|--------------------------------------------------| 

Guitar 1 - First part - Play this palm muted
e|--------------------------------------------------|
B|--------------------------------------------------|
G|--------------------------------------------------|
D|-11-11---11--11--9-9--9--9--7-7--7--7--6-6--6--6~-|
A|-9--9----9---9—--7-7--7--7--5-5--5--5--4-4--4--4~-|
E|--------------------------------------------------| 
 |

Guitar 2 -Comes in on second repeating w/ a heavy delay/echo effect
e|-----------|-----------|---------|-----|
B|-------9~--|-------9~--|------5~-|-----|
G|----9------|-----9-----|----7----|-10~-|
D|-11--------|--11-------|--7------|-----|
A|-----------|-----------|---------|-----|
E|-----------|-----------|---------|-----|

REPEAT CHORUS

SOLO: SORRY! couldn't work out Guitar 1, rhythm guitar

Guitar 2
e|-----------------|----------|--------------------|
B|-----------------|-------12-|-14-12----15-14-12--|
G|-----------------|-11-14----|-------14-----------|
D|---------9-11-12-|----------|--------------------|
A|-9-11-12---------|----------|--------------------|
E|-----------------|----------|--------------------|

e|----------|-----------------------------|
B|-------12-|-14-12----17-17-17---17/14~~-|
G|-11-14----|-------14--------------------|
D|----------|-----------------------------|
A|----------|-----------------------------|
E|----------|-----------------------------|

BRIDGE:

Guitar 2 Clean

e|--5-4-2---5-4-2--|
B|-----------------|
G|-----------------|
D|-----------------|
A|-----------------|
E|-----------------|x2


Guitar 1 - After guitar 2
e|--------------------------|
B|--------------------------|
G|--6:-6:-6-6-6-6--6-6-6-6--|
D|--6:-6:-6-6-6-6--6-6-6-6--|
A|--4:-4:-4-4-4-4--4-4-4-4--|
E|--------------------------|

CHORUS 2x

Guitar 2 
e|-------|
B|--14b--|
G|-------|
D|-------|
A|-------|
E|-------| play until the outro

Outro:
Guitar 1 
e|-----------------|
B|-----------------|
G|-6-6-6-6---------|
D|-6-6-6-6-4-4-4-4-|
A|-4-4-4-4-4-4-4-4-|
E|---------2-2-2-2-| x6

            
            
Suggest correction
Creating personal tab
Creating personal tab
You can edit any tab online and save it as your Personal.

You can edit, replace or remove any tab part or add personal notes – all changes will be seen only by you.

Personal tabs can be accessed anytime from any device, even offline.
Learn more »
Give kudos to tab author, rate the tab!
1 2 3 4 5
comments
print report bad tab
1 comment total.
0 reply
ritalinkid 92 Oct 17, 2007 05:48 PM

Hey, great tab! It rox :D Can't wait for SP's new album!

guest
You may want to rate the tab now too:
select rating
Wanna post a correction for this tab? Suggest correction