Oops, an error
Loading. Please wait.

I Dont Wanna Be Sad tab

665 views 3 this week
no commentswrite comment
1 2 3 4 5
1 last vote to show rating
add to favorites
×
Save as Personal and add changes to this tab that will be seen only by you. Learn more ›
×
You can save this tab as Personal to edit and correct it or add notes. All changes will be seen only by you. Learn more »
launch autoscroll
font size
0
reset
how to read this tab
guitar tuner
edit
Autoscroll
slow
fast
+/-
esc
set tempo
stop
I DON’T WANNA BE SAD

e|-----------------------------------------------------------------|
B|-----------------------------------------------------------------|
G|--7-------------------9-----------------------------------7------|
D|--7-------------------9--------------------5-------7------7------|
A|--5-------------------7--------------------5-------7------5------|
E|-------------------------------------------3-------5-------------|
    NO I DON’T WANNA BE SAD I DON’T WANNA BE SAD SAD SAD NO MORE

e|------------------------------------------------------------------------------|
B|------------------------------------------------------------------------------|
G|-----------7-7----------9-9---------------------------------------------7-7---|
D|-----------7-7----------9-9--------------5-5----------------------------7-7---|
A|-----------5-5----------7-7--------------5-5----------------------------5-5---|
E|-----------------------------------------3-3----------------------------------|
   IT’S BEEN 28 DAYS  THE SUNSHINE CAUSE I JUST CAN’T  TO LIFT THIS CLOUD AWAY
   SINCE I’VE SEEN                 SEEM

e|------------------------------------------------------------------------------|
B|------------------------------------------------------------------------------|
G|---------7-7--------------------9-9-------------------------------7-7---------|
D|---------7-7--------------------9-9--------------5-5--------------7-7---------|
A|---------5-5--------------------7-7--------------5-5--------------5-5---------|
E|-------------------------------------------------3-3--------------------------|
   I SWEAR ALL THE  COULD FILL AN OCEAN  I’VE BEEN SWIMMING  SEA OF MISERY
   TEARS I CRIED                         IN THE

e|------------------------------------------------------------------------------|
B|------------------------------------------------------------------------------|
G|--------7-7------------7-7------9-9--------9-9-----------------7-----7---7----|
D|--------7-7------------7-7------9-9--------9-9----5----5--5----7-----7---7----|
A|--------5-5------------5-5------7-7--------7-7----5----5--5----5-----5---5----|
E|--------------------------------------------------3----3--3-------------------|
  I CAN’T FIND  TO LEAVE BED  I’M LOCKED UP  HEAD I FEEL SO LOW  CAN’T LET GO 
  THE STRENGTH  THIS          IN MY CUCKOO        AND I

e|------------------------------------------------------------------------------|
B|------------------------------------------------------------------------------|
G|-------7-7---------7-7-----9-9-----------------9-9-----------------7--7----7--|
D|-------7-7---------7-7-----9-9-----------------9-9---5----5--5-----7--7----7--|
A|-------5-5---------5-5-----7-7-----------------7-7---5----5--5-----5--5----5--|
E|-----------------------------------------------------3----3--3----------------|
   I GOT ALL THE     SIGNS I TELL MY I’LL BE JUST FINE TRUTH BE TOLD GETTING OLD
   SYMPTOMS ALL THE        FRIENDS           WHEN      IT’S

e|-----------------------------------------------------------------|
B|-----------------------------------------------------------------|
G|--7-------------------9-----------------------------------7------|
D|--7-------------------9--------------------5-------7------7------|
A|--5-------------------7--------------------5-------7------5------|
E|-------------------------------------------3-------5-------------|
    NO I DON’T WANNA BE SAD I DON’T WANNA BE SAD SAD SAD NO MORE NO, NO, NO

e|----------------------------------------------------------------------------|
B|----------------------------------------------------------------------------|
G|------7----------------------9---------------------------------------7------|
D|------7----------------------9------------------------5-------7------7------|
A|------5----------------------7------------------------5-------7------5------|
E|------------------------------------------------------3-------5-------------|
  AND I KNOW SOME DAYS WILL BE BAD BUT I DON’T WANNA BE SAD SAD SAD NO MORE

e|-----------------------------------------------------------------------------|
B|-----------------------------------------------------------------------------|
G|--------7-7-----------9-9-------------------------------------------7-7------|
D|--------7-7-----------9-9----------------5-5------------------------7-7------|
A|--------5-5-----------7-7----------------5-5------------------------5-5------|
E|-----------------------------------------3-3---------------------------------|
  I TRIED EVERY    WILL PRESCRIBE ME     I PUT MYSELF   WEEKS OF THERAPY 
  PILL THE DOCTOR  AND                   THROUGH 

e|-----------------------------------------------------------------------------|
B|-----------------------------------------------------------------------------|
G|--------7-7----------9-9-----------------------------------------------7-7---|
D|--------7-7----------9-9---------------5-5-----------------------------7-7---|
A|--------5-5----------7-7---------------5-5-----------------------------5-5---|
E|---------------------------------------3-3-----------------------------------|
  I TRIED MEDITATION   PILATES IT’S LIKE HAPPINESS JUST WASN’T MEANT FOR ME
  YOGA AND 

e|---------------------------------------------------------------------------------|
B|---------------------------------------------------------------------------------|
G|-----7-7----------7-7---------9-9--------------9-9-----------------7-----7----7--|
D|-----7-7----------7-7---------9-9--------------9-9---5-----5--5----7-----7----7--|
A|-----5-5----------5-5---------7-7--------------7-7---5-----5--5----5-----5----5--|
E|-----------------------------------------------------3-----3--3------------------|
   I’M THROUGH I’VE ENOUGH I’LL DITCH I’LL TELL  WHAT  WATCH ME NOW  WON’T BACK DOWN
   I’M DONE    HAD         THIS FUNK  YOU        JUST  CAUSE I 

e|---------------------------------------------------------------------------------|
B|---------------------------------------------------------------------------------|
G|-----------7-7-------7-7------9-9-------9-9----------------------7---------------|
D|-----------7-7-------7-7------9-9-------9-9-----5--------5-5-----7--------7-7----|
A|-----------5-5-------5-5------7-7-------7-7-----5--------5-5-----5--------7-7----|
E|------------------------------------------------3--------3-3--------------5-5----|
  I’VE GOT A BAD  PERSONALITY I JUST NEED FREE IT STARTS TODAY I’M ON MY WAY
  ASS             SO          TO SET IT

e|-----------------------------------------------------------------|
B|-----------------------------------------------------------------|
G|--7-------------------9-----------------------------------7------|
D|--7-------------------9--------------------5-------7------7------|
A|--5-------------------7--------------------5-------7------5------|
E|-------------------------------------------3-------5-------------|
    NO I DON’T WANNA BE SAD I DON’T WANNA BE SAD SAD SAD NO MORE

e|----------------------------------------------------------------------------|
B|----------------------------------------------------------------------------|
G|------7----------------------9---------------------------------------7------|
D|------7----------------------9------------------------5-------7------7------|
A|------5----------------------7------------------------5-------7------5------|
E|------------------------------------------------------3-------5-------------|
  AND I KNOW SOME DAYS WILL BE BAD BUT I DON’T WANNA BE SAD SAD SAD NO MORE

NO, OH, OH, OH, NO, NO, NO I DON’T WANNA BE SAD
NO, OH, OH, OH, NO, NO, NO I DON’T WANNA BE SAD

e|-----------------------------------------------------------------|
B|-----------------------------------------------------------------|
G|------------------7----7-----7----7----7----7--------------------|
D|------------------7----7-----7----7----7----7--------------------|
A|------------------5----5-----5----5----5----5--------------------|
E|-----------------------------------------------------------------|
   I DON’T WANNA BE SAD, SAD,  SAD, SAD, SAD, SAD

e|-----------------------------------------------------------------|
B|-----------------------------------------------------------------|
G|--7-------------------9-----------------------------------7------|
D|--7-------------------9--------------------5-------7------7------|
A|--5-------------------7--------------------5-------7------5------|
E|-------------------------------------------3-------5-------------|
    NO I DON’T WANNA BE SAD I DON’T WANNA BE SAD SAD SAD NO MORE ON NO NO

e|----------------------------------------------------------------------------|
B|----------------------------------------------------------------------------|
G|------7----------------------9---------------------------------------7------|
D|------7----------------------9------------------------5-------7------7------|
A|------5----------------------7------------------------5-------7------5------|
E|------------------------------------------------------3-------5-------------|
  AND I KNOW SOME DAYS WILL BE BAD BUT I DON’T WANNA BE SAD SAD SAD NO MORE WHOA

e|----------------------------------------------------------------------------|
B|----------------------------------------------------------------------------|
G|--7----------------------9-------------------------------------------7------|
D|--7----------------------9----------------------------5-------7------7------|
A|--5----------------------7----------------------------5-------7------5------|
E|------------------------------------------------------3-------5-------------|
    NO NO NO I DON’T WANNA BE NO NO NO I DON’T WANNA BE SAD SAD SAD NO MORE WHOA

e|---------------------------------------------------------------------------------|
B|---------------------------------------------------------------------------------|
G|--7----------------------9-----------------------------------------------7-7-7---|
D|--7----------------------9----------------------------5-------7----------7-7-7---|
A|--5----------------------7----------------------------5-------7----------5-5-5---|
E|------------------------------------------------------3-------5------------------|
    NO NO NO I DON’T WANNA BE NO NO NO I DON’T WANNA BE SAD SAD SAD NO MORE
Suggest correction
Creating personal tab
Creating personal tab
You can edit any tab online and save it as your Personal.

You can edit, replace or remove any tab part or add personal notes – all changes will be seen only by you.

Personal tabs can be accessed anytime from any device, even offline.
Learn more »
Give kudos to tab author, rate the tab!
1 2 3 4 5
comments
print report bad tab
guest
You may want to rate the tab now too:
select rating
Wanna post a correction for this tab? Suggest correction