Oops, an error
Loading. Please wait.
We have an official Id Do Anything tab made by UG professional guitarists. Check out the tab »
×
1,158 views 1 this week
no commentswrite comment
1 2 3 4 5
3 more votes to show rating
add to favorites
×
Save as Personal and add changes to this tab that will be seen only by you. Learn more ›
×
You can save this tab as Personal to edit and correct it or add notes. All changes will be seen only by you. Learn more »
launch autoscroll
font size
0
reset
how to read this tab
guitar tuner
edit
Autoscroll
slow
fast
+/-
esc
set tempo
stop
Author
#----------------------------------PLEASE NOTE---------------------------------#
#This file is the author's own work and represents their interpretation of the #
#song. You may only use this file for private study, scholarship, or research. #
#------------------------------------------------------------------------------##

i will not take any credits for this tab, this is the power tab of PunKKiD182
this is very accurate and i did this because we don't look on power tabs, for us
downloading sux, but sometimes its not, kaya yan tignan nyo!!!

                                 I'D DO ANYTHING
                           As recorded by Simple Plan
             (From the 2002 Album NO PADS, NO HELMETS...JUST BALLS)

Transcribed by PunKKiD182

          G#5                  G5                   F5                   Eb5
      6 6 6 x x x          5 5 5 x x x          3 3 3 x x x          1 1 1 x x x

          C#5                  Bb5              Bb5(type 2)              C5
      x 4 6 6 x x          x 1 3 3 x x          x 1 3 x x x          x 3 5 5 x x

      C5(type 2)           C#5(type 2)          Eb5(type 2)          Eb5(type 3)
      x 3 5 x x x          x 4 6 x x x          x 6 8 8 x x          x 6 8 x x x

Gtr I (D A D G B E) - 'Untitled'
Gtr II (D A D G B E) - 'Untitled'
Gtr III (D A D G B E) - 'Untitled'
Gtr IV (D A D G B E) - 'Untitled'

 Intro
  Q=169
    Db5         Eb5    Ab5                 Db5         Eb5    Ab5
 1/4   4/4
  Gtrs I, II, III, IV
                               PM--------|
  E E   +E  E E Q  E E E   +E  E E E E E E E   +E  E E Q  E E E
|-----|------------------|-------------------|------------------|
|-----|------------------|-------------------|------------------|
|-----|------------------|-------------------|------------------|
|-----|-----3-6----5-8-6-|-(6)-6-6-6-6-5-3---|-----3-6----5-8-6-|
|---4-|-(4)-----6------6-|-(6)-6-6-6-6-5-3-4-|-(4)-----6------6-|
|-----|----------------6-|-(6)-6-6-6-6-5-3---|----------------6-|
|
| Gtr II
|                              PM--------|
| E E   +E  E E Q  E E E   +E  E E E E E E E   +E  E E Q  E E E
|-----|------------------|-------------------|------------------|
|-----|------------------|-------------------|------------------|
|-----|------------------|-------------------|------------------|
|-----|-----3-6----5-8-6-|-(6)-6-6-6-6-6-6---|-----3-6----5-8-6-|
|---4-|-(4)-----6------6-|-(6)-6-6-6-6-6-6-4-|-(4)-----6------6-|
|-----|----------------6-|-(6)-6-6-6-6-6-6---|----------------6-|


                  Db5         Eb5    Ab5
      PM--------|
  +E  E E E E E E E   +E  E E Q  E E E
|-------------------|------------------|
|-------------------|------------------|
|-------------------|------------------|
|-(6)-6-6-6-6-5-3---|-----3-6----5-8---|
|-(6)-6-6-6-6-5-3-4-|-(4)-----6--------|
|-(6)-6-6-6-6-5-3---|----------------6-|
|
|     PM--------|
| +E  E E E E E E E   +E  E E Q  E E E
|-------------------|------------------|
|-------------------|------------------|
|-------------------|------------------|
|-(6)-6-6-6-6-6-6---|-----3-6----5-8-6-|
|-(6)-6-6-6-6-6-6-4-|-(4)-----6------6-|
|-(6)-6-6-6-6-6-6---|----------------6-|


 Verse
                    G5                  F5
  +E   E E  E E E E E   +E  E E E E E E E
|---------------------|-------------------|
|---------------------|-------------------|
|---------------------|-------------------|
|--------6----5h6-----|-------6---5h6---3-|
|---------------------|-------------------|
|-(6)---------------5-|-(5)---------------|
|
| +Q     H.              W
|---------------------|-------------------|
|---------------------|-------------------|
|---------------------|-------------------|
|-(6)\----------------|-------------------|
|-(6)\----------------|-------------------|
|-(6)\----------------|-------------------|


                  Db5         Eb5    Ab5
  +E  E E E E E E E   +E  E E Q  E E E
|-------------------|-------------------|
|-------------------|-------------------|
|-------------------|-------------------|
|-(3)---6---5h6-----|-----3-6----5-8----|
|-----------------4-|-(4)-----6---------|
|-------------------|----------------6--|
|
|  W                   W
|-------------------|-------------------|
|-------------------|-------------------|
|-------------------|-------------------|
|-------------------|-------------------|
|-------------------|-------------------|
|-------------------|-------------------|


                  G5                  F5
  +E  E E E E E E E   +E  E E E E E E E
|-------------------|-------------------|
|-------------------|-------------------|
|-------------------|-------------------|
|-------6---5h6-----|-------6---5h6---3-|
|-------------------|-------------------|
|-(6)-------------5-|-(5)---------------|
|
|  W                   W
|-------------------|-------------------|
|-------------------|-------------------|
|-------------------|-------------------|
|-------------------|-------------------|
|-------------------|-------------------|
|-------------------|-------------------|


                  Db5         Eb5    Ab5
  +E  E E E E E E E   +E  E E Q  E E E
|-------------------|-------------------|
|-------------------|-------------------|
|-------------------|-------------------|
|-(3)---6---5h6-----|-----3-6----5-8----|
|-----------------4-|-(4)-----6---------|
|-------------------|----------------6--|
|
|  H.           E E   +E  E E Q  E E E
|-------------------|-------------------|
|-------------------|-------------------|
|-------------------|-------------------|
|-------------------|-----3-6----5-8----|
|-----------------4-|-(4)-----6---------|
|-------------------|-------------------|


                  G5                  F5
  +E  E E E E E E E   +E  E E E E E E E
|-------------------|-------------------|
|-------------------|-------------------|
|-------------------|-------------------|
|-------6---5h6-----|-------6---5h6---3-|
|-------------------|-------------------|
|-(6)-------------5-|-(5)---------------|
|
|  E  E E E E E E E    E  E E E E E Q
|-----4-4---4-4---4-|-----4-4---4-4-----|
|-------------------|-------------------|
|-------------------|-------------------|
|-------------------|-------------------|
|-------------------|-------------------|
|-------------------|-------------------|


                  Db5         Eb5    Ab5
  +E  E E E E E E E   +E  E E Q  E E E
|-------------------|-------------------|
|-------------------|-------------------|
|-------------------|-------------------|
|-(3)---6---5h6-----|-----3-6----5-8----|
|-----------------4-|-(4)-----6---------|
|-------------------|----------------6--|
|
|  E  E E E E E E E   +E  E E Q  E E E
|-----4-4---4-4-----|-------------------|
|-------------------|-------------------|
|-------------------|-------------------|
|-------------------|-----3-6----5-8----|
|-----------------4-|-(4)-----6---------|
|-------------------|-------------------|


                  G5                  F5
  +E  E E E E E E E   +E  E E E E E E E
|-------------------|-------------------|
|-------------------|-------------------|
|-------------------|-------------------|
|-------6---5h6-----|-------6---5h6---3-|
|-------------------|-------------------|
|-(6)-------------5-|-(5)---------------|
|
|  E  E E E E E E E    E  E E E E E Q
|-----4-4---4-4---4-|-----4-4---4-4-----|
|-------------------|-------------------|
|-------------------|-------------------|
|-------------------|-------------------|
|-------------------|-------------------|
|-------------------|-------------------|


                  Db5         Eb5    Bb5
  +E  E E E E E E E   +E  E E Q  E E E
|-------------------|-------------------|
|-------------------|-------------------|
|-------------------|-------------------|
|-(3)---6---5h6-----|-----3-6----5-8----|
|-----------------4-|-(4)-----6------1--|
|-------------------|-------------------|
|
|  E  E E E E E E E   +E  E E Q  E E E
|-----4-4---4-4-----|-------------------|
|-------------------|-------------------|
|-------------------|----------------3--|
|-------------------|-----3-6----5-8-3--|
|-----------------4-|-(4)-----6------1--|
|-------------------|-------------------|


 Pre-Chorus
                  C5                  Db5                 Eb5
  +E  E E E E E E E   +E  E E E E E E E   +E  E E E E E E E
|-------------------|-------------------|-------------------|
|-------------------|-------------------|-------------------|
|-------------------|-------------------|-------------------|
|-------6---5h6-----|-------6---5h6-----|-------6---5h6---5-|
|-(1)-------------3-|-(3)-------------4-|-(4)---------------|
|-------------------|-------------------|-------------------|
|
|     PM--------|         PM--------|         PM--------|
| +E  E E E E E E E   +E  E E E E E E E   +E  E E E E E E E
|-------------------|-------------------|-------------------|
|-------------------|-------------------|-------------------|
|-(3)-------------5-|-(5)-------------6-|-(6)-------------8-|
|-(3)-3-3-3-3-3-3-5-|-(5)-5-5-5-5-5-5-6-|-(6)-6-6-6-6-6-6-8-|
|-(1)-1-1-1-1-1-1-3-|-(3)-3-3-3-3-3-3-4-|-(4)-4-4-4-4-4-4-6-|
|-------------------|-------------------|-------------------|


                       Db5
  +Q.     Q.     Q     W
|--------------------|------------|
|--------------------|------------|
|--------------------|------------|
|-(5)-----6------8---|------------|
|--------------------|------------|
|--------------------|------------|
|
| +E  E E E  E E E E   Q  Q  H
|--------------------|------------|
|--------------------|------------|
|-(8)----------------|-6--6-------|
|-(8)-8-8-8--8-8-8-8-|-6--6-------|
|-(6)-6-6-6--6-6-6-6-|-4--4-------|
|--------------------|------------|


 Chorus
  $
  Ab5         Eb5                F5                     Db5         Ab5
  Gtrs I, II
  Q  Q  E E E E   +E  E Q  E E E E   +E  E Q  E E E E   Q  Q  E E E E
|---------------|------------------|------------------|----------------|
|---------------|------------------|------------------|----------------|
|---------------|------------------|------------------|-6--6--6-6-6----|
|-6--6--6-6-6-1-|-(1)-1-1--1-1-1-3-|-(3)-3-3--3-3-3-3-|-6--6--6-6-6-6--|
|-6--6--6-6-6-1-|-(1)-1-1--1-1-1-3-|-(3)-3-3--3-3-3-3-|-4--4--4-4-4-6--|
|-6--6--6-6-6-1-|-(1)-1-1--1-1-1-3-|-(3)-3-3--3-3-3-3-|-------------6--|


                      Eb5         F5                      Db5
  +E  E E E E E E E   Q  Q  E E E E   +E  E E E E E E E   Q  Q  H
|-------------------|---------------|-------------------|------------|
|-------------------|---------------|-------------------|------------|
|-------------------|---------------|-------------------|-6--6-------|
|-(6)-6-6-6-6-6-6-6-|-1--1--1-1-1-3-|-(3)-3-3-3-3-3-3-3-|-6--6-------|
|-(6)-6-6-6-6-6-6-6-|-1--1--1-1-1-3-|-(3)-3-3-3-3-3-3-3-|-4--4-------|
|-(6)-6-6-6-6-6-6-6-|-1--1--1-1-1-3-|-(3)-3-3-3-3-3-3-3-|------------|


  Ab5         Eb5                F5                     Db5         Ab5
  Q  Q  E E E E   +E  E Q  E E E E   +E  E Q  E E E E   Q  Q  E E E E
|---------------|------------------|------------------|----------------|
|---------------|------------------|------------------|----------------|
|---------------|------------------|------------------|-6--6--6-6-6----|
|-6--6--6-6-6-1-|-(1)-1-1--1-1-1-3-|-(3)-3-3--3-3-3-3-|-6--6--6-6-6-6--|
|-6--6--6-6-6-1-|-(1)-1-1--1-1-1-3-|-(3)-3-3--3-3-3-3-|-4--4--4-4-4-6--|
|-6--6--6-6-6-1-|-(1)-1-1--1-1-1-3-|-(3)-3-3--3-3-3-3-|-------------6--|


                                               To Coda
                      Eb5         F5
  +E  E E E E E E E   Q  Q  E E E E   +E  E E E E E E E
|-------------------|---------------|-------------------|
|-------------------|---------------|-------------------|
|-------------------|---------------|-------------------|
|-(6)-6-6-6-6-6-6-6-|-1--1--1-1-1-3-|-(3)-3-3-3-3-3-3-3-|
|-(6)-6-6-6-6-6-6-6-|-1--1--1-1-1-3-|-(3)-3-3-3-3-3-3-3-|
|-(6)-6-6-6-6-6-6-6-|-1--1--1-1-1-3-|-(3)-3-3-3-3-3-3-3-|


  Db5       Db5         Eb5    Ab5
  H.      E E   +E  E E Q  E E E
|-------------|------------------||
|-------------|------------------||
|-6-----------|------------------||
|-6-----------|-----3-6----5-8---||
|-4---------4-|-(4)-----6--------||
|-------------|----------------6-||


 Verse
                  G5                  F5
  Gtr I
  +E  E E E E E E E   +E  E E E E E E E
|-------------------|-------------------|
|-------------------|-------------------|
|-------------------|-------------------|
|-------6---5h6-----|-------6---5h6---3-|
|-------------------|-------------------|
|-(6)-------------5-|-(5)---------------|
|
| Gtr II
|  E  E E E E E E E    E  E E E E E Q
|-----4-4---4-4---4-|-----4-4---4-4-----|
|-------------------|-------------------|
|-------------------|-------------------|
|-------------------|-------------------|
|-------------------|-------------------|
|-------------------|-------------------|


                  Db5         Eb5    Ab5
  +E  E E E E E E E   +E  E E Q  E E E
|-------------------|-------------------|
|-------------------|-------------------|
|-------------------|-------------------|
|-(3)---6---5h6-----|-----3-6----5-8----|
|-----------------4-|-(4)-----6---------|
|-------------------|----------------6--|
|
|  E  E E E E E E E   +E  E E Q  E E E
|-----4-4---4-4-----|-------------------|
|-------------------|-------------------|
|-------------------|-------------------|
|-------------------|-----3-6----5-8----|
|-----------------4-|-(4)-----6---------|
|-------------------|-------------------|


                  G5                  F5
  +E  E E E E E E E   +E  E E E E E E E
|-------------------|-------------------|
|-------------------|-------------------|
|-------------------|-------------------|
|-------6---5h6-----|-------6---5h6---3-|
|-------------------|-------------------|
|-(6)-------------5-|-(5)---------------|
|
|  E  E E E E E E E    E  E E E E E Q
|-----4-4---4-4---4-|-----4-4---4-4-----|
|-------------------|-------------------|
|-------------------|-------------------|
|-------------------|-------------------|
|-------------------|-------------------|
|-------------------|-------------------|


                  Db5         Eb5    Ab5
  +E  E E E E E E E   +E  E E Q  E E E
|-------------------|-------------------|
|-------------------|-------------------|
|-------------------|-------------------|
|-(3)---6---5h6-----|-----3-6----5-8----|
|-----------------4-|-(4)-----6---------|
|-------------------|----------------6--|
|
|  E  E E E E E E E   +E  E E Q  E E E
|-----4-4---4-4-----|-------------------|
|-------------------|-------------------|
|-------------------|-------------------|
|-------------------|-----3-6----5-8----|
|-----------------4-|-(4)-----6---------|
|-------------------|----------------6--|


                  G5                  F5
  +E  E E E E E E E   +E  E E E E E E E
|-------------------|-------------------|
|-------------------|-------------------|
|-------------------|-------------------|
|-------6---5h6-----|-------6---5h6---3-|
|-------------------|-------------------|
|-(6)-------------5-|-(5)---------------|
|
| +E  E E E E E E E   +E  E E E E E E E
|-------------------|-------------------|
|-------------------|-------------------|
|-------5---3h5-----|-------5---3h5-----|
|-------------------|-----------------3-|
|-------------------|-------------------|
|-(6)-------------5-|-(5)---------------|


                  Db5         Eb5    Ab5
  +E  E E E E E E E   +E  E E Q  E E E
|-------------------|-------------------|
|-------------------|-------------------|
|-------------------|-------------------|
|-(3)---6---5h6-----|-----3-6----5-8----|
|-----------------4-|-(4)-----6---------|
|-------------------|----------------6--|
|
| +E  E E E E E E E   +E  E E Q  E E E
|-------------------|-------------------|
|-------------------|-------------------|
|-------5---3h5-----|-------------------|
|-(3)---------------|-----3-6----5-8----|
|-----------------4-|-(4)-----6---------|
|-------------------|----------------6--|


                  G5                  F5
  +E  E E E E E E E   +E  E E E E E E E
|-------------------|-------------------|
|-------------------|-------------------|
|-------------------|-------------------|
|-------6---5h6-----|-------6---5h6---3-|
|-------------------|-------------------|
|-(6)-------------5-|-(5)---------------|
|
| +E  E E E E E E E   +E  E E E E E E E
|-------------------|-------------------|
|-------------------|-------------------|
|-------5---3h5-----|-------5---3h5-----|
|-------------------|-----------------3-|
|-------------------|-------------------|
|-(6)-------------5-|-(5)---------------|


                  Db5         Eb5    Bb5
  +E  E E E E E E E   +E  E E Q  E E E
|-------------------|-------------------|
|-------------------|-------------------|
|-------------------|----------------3--|
|-(3)---6---5h6-----|-----3-6----5-8-3--|
|-----------------4-|-(4)-----6------1--|
|-------------------|-------------------|
|
| +E  E E E E E E E   +E  E E Q  E E E
|-------------------|-------------------|
|-------------------|-------------------|
|-------5---3h5-----|-------------------|
|-(3)---------------|-----3-6----5-8----|
|-----------------4-|-(4)-----6------1--|
|-------------------|-------------------|


 Pre-Chorus
                  C5                  Db5                 Eb5
      PM--------|         PM--------|         PM--------|
  +E  E E E E E E E   +E  E E E E E E E   +E  E E E E E E E
|-------------------|-------------------|-------------------|
|-------------------|-------------------|-------------------|
|-(3)-------------5-|-(5)-------------6-|-(6)-------------8-|
|-(3)-3-3-3-3-3-3-5-|-(5)-5-5-5-5-5-5-6-|-(6)-6-6-6-6-6-6-8-|
|-(1)-1-1-1-1-1-1-3-|-(3)-3-3-3-3-3-3-4-|-(4)-4-4-4-4-4-4-6-|
|-------------------|-------------------|-------------------|
|
| +E  E E E E E E E   +E  E E E E E E E   +E  E E E E E E E
|-------------------|-------------------|-------------------|
|-------------------|-------------------|-------------------|
|-------------------|-------5---3h5-----|-------6---5h6---8-|
|-------6---5h6-----|-------------------|-------------------|
|-(1)-------------3-|-(3)-------------4-|-(4)---------------|
|-------------------|-------------------|-------------------|
|
| Gtr III
|  Q    E E E E E E   +E  E E E E E E E   +E  E E E E E E E
|-------------------|-------------------|-------------------|
|-------------------|-------------------|-------------------|
|-------------------|-------------------|-------------------|
|-------6---5h6-----|-------6---5h6-----|-------6---6-6---6-|
|-----------------3-|-(3)-------------4-|-(4)---------------|
|-------------------|-------------------|-------------------|


                Bb5                 C5                  Eb5
                                            <
                        PM--------|         PM|
  +Q   Q  E E E E   +E  E E E E E E E   +E  E E E E E E E
|-----------------|-------------------|-------------------|
|-----------------|-------------------|-------------------|
|-(8)--8----------|-----------------5-|-(5)---------------|
|-(8)--8--8-6-5-3-|-(3)-3-3-3-3-3-3-5-|-(5)-5-5-5-5-5-5-1-|
|-(6)--6--6-4-3-1-|-(1)-1-1-1-1-1-1-3-|-(3)-3-3-3-3-3-3-1-|
|-----------------|-------------------|-----------------1-|
|
| +Q   Q  E E E E   +E  E E E E E E E   +E  E E E E E E E
|-----------------|-------------------|-------------------|
|-----------------|-------------------|-------------------|
|-(8)--8--8-6-5---|-------------------|-------5---3h5-----|
|-----------------|-------6---5h6-----|---------------3-1-|
|---------------1-|-(1)-------------3-|-(3)-------------1-|
|-----------------|-------------------|-----------------1-|
|
|                                           PM----|
| +Q   Q  E E E E   +E  E E E E E E E    E  E E E E E E E
|-----------------|-------------------|-------------------|
|-----------------|-------------------|-------------------|
|-----------------|-------------------|-------------------|
|-(6)--6--6-6-6---|-------6---5h6-----|-----5-5-5-5-5-5-1-|
|---------------1-|-(1)-------------3-|--3--3-3-3-3-3-3-1-|
|-----------------|-------------------|-----------------1-|


                                       D.S. al Coda
                                           Db5
  +E  E E E E E E E    E  E E E E E  E E   Q  Q  H
|-------------------|--------------------|------------||
|-------------------|--------------------|------------||
|-------------------|--------------------|-6--6-------||
|-(1)-1-1-1-1-1-1-1-|--1--1-1-1-1-1--1-1-|-6--6-------||
|-(1)-1-1-1-1-1-1-1-|--1--1-1-1-1-1--1-1-|-4--4-------||
|-(1)-1-1-1-1-1-1-1-|--1--1-1-1-1-1--1-1-|------------||
|
| +E  E E E E E E E   +E  E E E E E  E E   Q  Q  H
|-------------------|--------------------|------------||
|-------------------|--------------------|------------||
|-----------------8-|-(8)----------------|-6--6-------||
|-(1)-1-1-1-1-1-1-8-|-(8)-8-8-8-8-8--8-8-|-6--6-------||
|-(1)-1-1-1-1-1-1-6-|-(6)-6-6-6-6-6--6-6-|-4--4-------||
|-(1)-1-1-1-1-1-1---|--------------------|------------||
|
| +W                   E  E E E E E  Q     W
|-------------------|--------------------|------------||
|-------------------|--8--8-8-9-9-9-11---|------------||
|-------------------|--x--x-x-x-x-x--x---|------------||
|-(1)---------------|--5--5-5-6-6-6--8---|------------||
|-(1)---------------|--------------------|------------||
|-(1)---------------|--------------------|------------||


  &
  Db5
  Gtrs I, II
  W          +W           +W
|----------|------------|--------|
|----------|------------|--------|
|-6--------|-(6)--------|-(6)----|
|-6--------|-(6)--------|-(6)----|
|-4--------|-(4)--------|-(4)----|
|----------|------------|--------|
|
| Gtr IV
| W           W            W
|----------|------------|--------|
|----------|------------|--------|
|-6--------|--6---------|--6-----|
|-6--------|--6---------|--6-----|
|-4--------|--4---------|--4-----|
|----------|------------|--------|


   Interlude
    Ab5          Eb5          F5           Db5
    Gtr IV
    H.      Q    H.      Q    H.      Q    H.      Q   3x
||-------------|------------|------------|-------------||
||o------------|------------|------------|------------o||
||-------------|------------|------------|-6-------6---||
||--6-------6--|-1-------1--|-3-------3--|-6-------6---||
||o-6-------6--|-1-------1--|-3-------3--|-4-------4--o||
||--6-------6--|-1-------1--|-3-------3--|-------------||


  Ab5          Eb5
               Gtrs I, II
  H.      Q    W          W          H    H
|------------|----------|----------|-----------|
|------------|----------|----------|-----------|
|------------|----------|----------|-----------|
|-6-------6--|-1--------|-1--------|-1----1----|
|-6-------6--|-1--------|-1--------|-1----1----|
|-6-------6--|-1--------|-1--------|-1----1----|


                    Db5
  E E E E E E E E   Q  Q   H
|-----------------|-------------||
|-----------------|-------------||
|-----------------|-6--6\-------||
|-1-1-1-1-1-1-1-1-|-6--6\-------||
|-1-1-1-1-1-1-1-1-|-4--4\-------||
|-1-1-1-1-1-1-1-1-|-------------||


 Chorus
            Eb5                            F5
  H.      E  E        +E   E  Q   E  E  E  E
|------------------|-------------------------|
|------------------|-------------------------|
|------------------|-------------------------|
|------------1-----|--(1)--1--1---1--1--1--3-|
|------------1-----|--(1)--1--1---1--1--1--3-|
|------------1-----|--(1)--1--1---1--1--1--3-|
|
| Gtr III
| H.      E  E        +E   E  Q   E  E  Q
|-----------11-----|-(11)-11-11--11-11-11----|
|-----------14b16==|=(14)-14-14--14-14-14r---|
|------------------|-------------------------|
|------------------|-------------------------|
|------------------|-------------------------|
|------------------|-------------------------|


                                      Db5                   Ab5
  +E      E  Q   E      E  E  E         Q      Q   E  E  E  E
|-----------------------------------|--------------------------|
|-----------------------------------|--------------------------|
|-----------------------------------|---6------6---6--6--6-----|
|-(3)-----3--3---3------3--3--3-----|---6------6---6--6--6--6--|
|-(3)-----3--3---3------3--3--3-----|---4------4---4--4--4--6--|
|-(3)-----3--3---3------3--3--3-----|-----------------------6--|
|
|  E     +Q.     E     +Q     E        +E   E  Q   E  E  Q
|-----------------------------------|--------------------------|
|-11----(11)----13----(13)----9-----|--(9)--9--9---9--9--9-----|
|-13b15-(13)----15b17-(15)---11b13==|=(11)-11-11--11-11-11r----|
|-----------------------------------|--------------------------|
|-----------------------------------|--------------------------|
|-----------------------------------|--------------------------|


                        Eb5                  F5
  +E  E E E  E E  E E     Q      Q   E  E  E E
|---------------------|------------------------|
|---------------------|------------------------|
|---------------------|------------------------|
|-(6)-6-6-6--6-6--6-6-|---1------1---1--1--1-3-|
|-(6)-6-6-6--6-6--6-6-|---1------1---1--1--1-3-|
|-(6)-6-6-6--6-6--6-6-|---1------1---1--1--1-3-|
|
|  Q.     Q.      Q      +E   E  Q   E  E  Q
|----------------11---|-(11)-11-11--11-11-11---|
|--8------9-----------|------------------------|
|---------------------|------------------------|
|---------------------|------------------------|
|---------------------|------------------------|
|---------------------|------------------------|


                        Db5
  +E  E E E  E E  E E   Q   Q  E E  E E
|---------------------|------------------|
|---------------------|------------------|
|---------------------|-6---6--6-6--6-6--|
|-(3)-3-3-3--3-3--3-3-|-6---6--6-6--6-6--|
|-(3)-3-3-3--3-3--3-3-|-4---4--4-4--4-4--|
|-(3)-3-3-3--3-3--3-3-|------------------|
|
|  Q.     Q.      Q     Q   Q  Q    Q
|----------------11---|----11------11----|
|--8------9-----------|-9------9---------|
|---------------------|------------------|
|---------------------|------------------|
|---------------------|------------------|
|---------------------|------------------|


  Ab5            Eb5                F5
  Q    Q   E E E E   +E  E Q  E E E E
|------------------|------------------|
|------------------|------------------|
|------------------|------------------|
|-6----6---6-6-6-1-|-(1)-1-1--1-1-1-3-|
|-6----6---6-6-6-1-|-(1)-1-1--1-1-1-3-|
|-6----6---6-6-6-1-|-(1)-1-1--1-1-1-3-|
|
| E  Q   H       E    Q    Q  E E Q
|---11-------------|-11---------------|
|-9------9-------9-|-------9--9-9-9---|
|------------------|------------------|
|------------------|------------------|
|------------------|------------------|
|------------------|------------------|


                                      Db5                   Ab5
  +E      E  Q   E      E  E  E         Q      Q   E  E  E  E
|-----------------------------------|--------------------------|
|-----------------------------------|--------------------------|
|-----------------------------------|---6------6---6--6--6-----|
|-(3)-----3--3---3------3--3--3-----|---6------6---6--6--6--6--|
|-(3)-----3--3---3------3--3--3-----|---4------4---4--4--4--6--|
|-(3)-----3--3---3------3--3--3-----|-----------------------6--|
|
|  E     +Q.     E     +Q     E        +E   E  Q   E  E  Q
|-----------------------------------|--------------------------|
|-11----(11)----13----(13)----9-----|--(9)--9--9---9--9--9-----|
|-13b15-(13)----15b17-(15)---11b13==|=(11)-11-11--11-11-11r----|
|-----------------------------------|--------------------------|
|-----------------------------------|--------------------------|
|-----------------------------------|--------------------------|


                        Eb5               F5
  +E  E E E  E E  E E     Q   Q   E  E  E E
|---------------------|---------------------|
|---------------------|---------------------|
|---------------------|---------------------|
|-(6)-6-6-6--6-6--6-6-|---1---1---1--1--1-3-|
|-(6)-6-6-6--6-6--6-6-|---1---1---1--1--1-3-|
|-(6)-6-6-6--6-6--6-6-|---1---1---1--1--1-3-|
|
|  Q.     Q.      Q      +Q   E Q    Q.
|----------------11---|-(11)--------11------|
|--8------9-----------|-------8-9---11------|
|---------------------|---------------------|
|---------------------|---------------------|
|---------------------|---------------------|
|---------------------|---------------------|


                        Db5
  +E  E E E  E E  E E   Q   Q  E E  E E
|---------------------|------------------|
|---------------------|------------------|
|---------------------|-6---6--6-6--6-6--|
|-(3)-3-3-3--3-3--3-3-|-6---6--6-6--6-6--|
|-(3)-3-3-3--3-3--3-3-|-4---4--4-4--4-4--|
|-(3)-3-3-3--3-3--3-3-|------------------|
|
|  Q.     Q.      Q     Q   Q  Q    Q
|----------------11---|----11------11----|
|--8------9-----------|-9------9---------|
|---------------------|------------------|
|---------------------|------------------|
|---------------------|------------------|
|---------------------|------------------|


  Ab5                  Eb5                        F5
   Q     Q     E  E  E  E   +E   E  Q     E  E  E  E
|-------------------------|--------------------------|
|-------------------------|--------------------------|
|-------------------------|--------------------------|
|--6-----6-----6--6--6--1-|-(1)--1--1-----1--1--1--3-|
|--6-----6-----6--6--6--1-|-(1)--1--1-----1--1--1--3-|
|--6-----6-----6--6--6--1-|-(1)--1--1-----1--1--1--3-|
|
|  E  E  E  E  E  E  E  E    E   E  E  E  E  E  E  E
|-11-11-11-11-11-11-11-11-|-11--11-11-11-11-11-11-11-|
|--9--9--9--9--9--9--9--9-|-11--11-11-11-11-11-11-11-|
|-------------------------|--------------------------|
|-------------------------|--------------------------|
|-------------------------|--------------------------|
|-------------------------|--------------------------|


                             Db5                    Ab5
  +E   E  Q     E  E  E  E     Q      Q     E  E  E  E
|--------------------------|----------------------------|
|--------------------------|----------------------------|
|--------------------------|---6------6-----6--6--6-----|
|-(3)--3--3-----3--3--3--3-|---6------6-----6--6--6--6--|
|-(3)--3--3-----3--3--3--3-|---4------4-----4--4--4--6--|
|-(3)--3--3-----3--3--3--3-|-------------------------6--|
|
|  E   E  E  E  E  E  E  E    +E   E  E  E  E  E  E  E
|-11--11-11-11-11-------11-|-(11)-11-11-11-11-11-11-11--|
|-13--13-13-14-14-16-16--9-|--(9)--9--9--9--9--9--9--9--|
|--------------------------|----------------------------|
|--------------------------|----------------------------|
|--------------------------|----------------------------|
|--------------------------|----------------------------|


                             Eb5                  F5
  +E   E  E  E  E  E  E  E    Q     Q     E  E  E  E
|--------------------------|-------------------------|
|--------------------------|-------------------------|
|--------------------------|-------------------------|
|-(6)--6--6--6--6--6--6--6-|--1-----1-----1--1--1--3-|
|-(6)--6--6--6--6--6--6--6-|--1-----1-----1--1--1--3-|
|-(6)--6--6--6--6--6--6--6-|--1-----1-----1--1--1--3-|
|
|  E   E  E  E  E  E  E  E    E  E  E  E  E  E  E  E
|-11--11-11-11-11-11-11-11-|-11-11-11-11-11-11-11-11-|
|--9---9--9--9--9--9--9--9-|-11-11-11-11-11-11-11-11-|
|--------------------------|-------------------------|
|--------------------------|-------------------------|
|--------------------------|-------------------------|
|--------------------------|-------------------------|


                             Db5
  +E   E  E  E  E  E  E  E    Q     Q     E  E  E  E
|--------------------------|--------------------------|
|--------------------------|--------------------------|
|--------------------------|--6-----6-----6--6--6--6--|
|-(3)--3--3--3--3--3--3--3-|--6-----6-----6--6--6--6--|
|-(3)--3--3--3--3--3--3--3-|--4-----4-----4--4--4--4--|
|-(3)--3--3--3--3--3--3--3-|--------------------------|
|
|  E   E  E  E  E  E  E  E    E  E  E  E  E  E  E  E
|-11--11-11-11-11-11-11-11-|-11-11-11-11-11-11-11-11--|
|-13--13-13-13-13-13-13-13-|--9--9--9--9--9--9--9--9--|
|--------------------------|--------------------------|
|--------------------------|--------------------------|
|--------------------------|--------------------------|
|--------------------------|--------------------------|


  Ab5                  Eb5                        F5
   Q     Q     E  E  E  E   +E   E  Q     E  E  E  E
|-------------------------|--------------------------|
|-------------------------|--------------------------|
|-------------------------|--------------------------|
|--6-----6-----6--6--6--1-|-(1)--1--1-----1--1--1--3-|
|--6-----6-----6--6--6--1-|-(1)--1--1-----1--1--1--3-|
|--6-----6-----6--6--6--1-|-(1)--1--1-----1--1--1--3-|
|
|  E  E  E  E  E  E  E  E    E   E  E  E  E  E  E  E
|-11-11-11-11-11-11-11-11-|-11--11-11-11-11-11-11-11-|
|--9--9--9--9--9--9--9--9-|-11--11-11-11-11-11-11-11-|
|-------------------------|--------------------------|
|-------------------------|--------------------------|
|-------------------------|--------------------------|
|-------------------------|--------------------------|


                             Db5                    Ab5
  +E   E  Q     E  E  E  E     Q      Q     E  E  E  E
|--------------------------|----------------------------|
|--------------------------|----------------------------|
|--------------------------|---6------6-----6--6--6-----|
|-(3)--3--3-----3--3--3--3-|---6------6-----6--6--6--6--|
|-(3)--3--3-----3--3--3--3-|---4------4-----4--4--4--6--|
|-(3)--3--3-----3--3--3--3-|-------------------------6--|
|
|  E   E  E  E  E  E  E  E    +E   E  E  E  E  E  E  E
|-11--11-11-11-11-------11-|-(11)-11-11-11-11-11-11-11--|
|-13--13-13-14-14-16-16--9-|--(9)--9--9--9--9--9--9--9--|
|--------------------------|----------------------------|
|--------------------------|----------------------------|
|--------------------------|----------------------------|
|--------------------------|----------------------------|


  Ab5                  Eb5                        F5
   Q     Q     E  E  E  E   +E   E  Q     E  E  E  E
|-------------------------|--------------------------|
|-------------------------|--------------------------|
|-------------------------|--------------------------|
|--6-----6-----6--6--6--1-|-(1)--1--1-----1--1--1--3-|
|--6-----6-----6--6--6--1-|-(1)--1--1-----1--1--1--3-|
|--6-----6-----6--6--6--1-|-(1)--1--1-----1--1--1--3-|
|
|  E  E  E  E  E  E  E  E    E   E  E  E  E  E  E  E
|-11-11-11-11-11-11-11-11-|-11--11-11-11-11-11-11-11-|
|--9--9--9--9--9--9--9--9-|-11--11-11-11-11-11-11-11-|
|-------------------------|--------------------------|
|-------------------------|--------------------------|
|-------------------------|--------------------------|
|-------------------------|--------------------------|


                             Db5        Db5
  +E   E  Q     E  E  E  E    H.      E E
|--------------------------|---------------|
|--------------------------|---------------|
|--------------------------|--6------------|
|-(3)--3--3-----3--3--3--3-|--6------------|
|-(3)--3--3-----3--3--3--3-|--4---------4--|
|-(3)--3--3-----3--3--3--3-|---------------|
|
|  E   E  E  E  E  E  E  E    H.      Q
|-11--11-11-11-11-11-------|-11------------|
|-13--13-13-14-14-14-16-16-|-14------------|
|--------------------------|---------------|
|--------------------------|---------------|
|--------------------------|---------------|
|--------------------------|---------------|


          Eb5    Ab5
  +E  E E Q  E E E   +H      H
|------------------|--------------*|
|------------------|--------------*|
|------------------|--------------*|
|-----3-6----5-8-6-|-(6)\---------*|
|-(4)-----6------6-|-(6)\---------*|
|----------------6-|-(6)\---------*|


Duration Legend
---------------
W - whole; H - half; Q - quarter; E - 8th; S - 16th; T - 32nd; X - 64th; a - acciaccatura
+ - note tied to previous; . - note dotted; .. - note double dotted
Uncapitalized letters represent notes that are staccato (1/2 duration)
Irregular groupings are notated above the duration line
Duration letters will always appear directly above the note/fret number it represents the
duration for.  Duration letters with no fret number below them represent rests.  Multi-
bar rests are notated in the form Wxn, where n is the number of bars to rest for.  Low
melody durations appear below the staff

Tablature Legend
----------------
 h   - hammer-on
 p   - pull-off
 b   - bend
 pb  - pre-bend
 r   - bend release (if no number after the r, then release immediately)
 /\  - slide into or out of (from/to "nowhere")
 s   - legato slide
 S   - shift slide
  - natural harmonic
[n]  - artificial harmonic
n(n) - tapped harmonic
 ~   - vibrato
 tr  - trill
 T   - tap
 TP  - trem. picking
 PM  - palm muting
\n/  - tremolo bar dip; n = amount to dip
 \n  - tremolo bar down
 n/  - tremolo bar up
/n\  - tremolo bar inverted dip
 =   - hold bend; also acts as connecting device for hammers/pulls
 <>  - volume swell (louder/softer)
 x   - on rhythm slash represents muted slash
 o   - on rhythm slash represents single note slash

Misc Legend
-----------
 |  - bar
||  - double bar
||o - repeat start
o|| - repeat end
*|  - double bar (ending)
 :  - bar (freetime)
 $  - Segno
 &  - Coda
Tempo markers -  = BPM(8/16=s8/s16), where s8 = swing 8ths, s16 = swing 16ths


***************************************************************************************
* Generated using Power Tab Editor by Brad Larsen - http://powertab.guitarnetwork.org *
***************************************************************************************

            
            
Suggest correction
Creating personal tab
Creating personal tab
You can edit any tab online and save it as your Personal.

You can edit, replace or remove any tab part or add personal notes – all changes will be seen only by you.

Personal tabs can be accessed anytime from any device, even offline.
Learn more »
Give kudos to tab author, rate the tab!
1 2 3 4 5
comments
print report bad tab
guest
You may want to rate the tab now too:
select rating
Wanna post a correction for this tab? Suggest correction