Oops, an error
Loading. Please wait.

Im Just A Kid Bass Tab

version 5
version 5
4,032 views 1 this week
2 commentsread comments
1 2 3 4 5
excellent!
x 1
add to favorites
launch autoscroll
font size
0
reset
guitar tuner
Tab Pro tools
  • play this tab
  • loop segment
  • change instrument
  • show fretboard
  • metronome
×
Best way to learn
"Im Just A Kid"
Autoscroll
slow
fast
+/-
esc
set tempo
stop
Contributor
Difficulty
Note: 0(8)=00000000, 5(8)=55555555, etc.
Tuning: Eb, G#, C#, F# (Half-Step Down)

[No Bass in First Intro or Verse 1]

Chorus 1:
|----------------|------|----------------|----------------|----------------|
|----------------|------|----------------|----------------|----------------|
|-5-5-5----------|------|-5-5-5----------|----------------|----------------|
|-------3--3-3-3-|-5(8)-|-------3--3-3-3-|-5-5-5-3--3-3-3-|-0-0-0-3--3-3-3-|

|-----------------|----------------|-----------------|
|-----------------|----------------|-----------------|
|-5-5-5-5---------|----------------|-----------------|
|---------5-5-5-5-|-0-0-0-3--------|-5-5-5-5-5-------|

[Rest for 16 counts]

Verse 2:
|-----------------|-----------------| x 3
|-----------------|-----------------|
|-5-5-5-5---------|-----------------|
|---------3-3-3-3-|-5-5-5-5-3-3-3-3-|

|-----------------|------|-----------------|-----------------|
|-----------------|------|-----------------|-----------------|
|-----------------|------|-----------------|-----------------|
|-2-2-2-2-3-3-3-3-|-5(8)-|-0-0-0-0-3-3-3-3-|-5-5-5-5-5-------|

Chorus 2:
|----------------|------|----------------|----------------|----------------|
|----------------|------|----------------|----------------|----------------|
|-5-5-5----------|------|-5-5-5----------|----------------|----------------|
|-------3--3-3-3-|-5(8)-|-------3--3-3-3-|-5-5-5-3--3-3-3-|-0-0-0-3--3-3-3-|

|-----------------|----------------|-----------------|
|-----------------|----------------|-----------------|
|-5-5-5-5---------|----------------|-----------------|
|---------5-5-5-5-|-0-0-0-3--------|-5-5-5-5-5-5-5-5-|

Bridge:
|-----------------|----------------|-----------------|-----------------|
|-----------------|----------------|-----------------|-----------------|
|-----------------|----------------|-----------------|-------------5---|
|-3-3-3-3-3-3-3-5-|--5-5-5-5-5-5-5-|-2-2-2-2-2-2-5-5-|-3-3-3-3-3-3-----|

|-----------------|-----------------|------|----------|-(rest)---| 
|-----------------|-----------------|------|----------|-(for)----| 
|-----------------|---------5-5-5-5-|-7(8)-|----------|-(eighty)-|
|-3-3-3-3-3-3-3-5-|-5-5-5-5---------|------|-5--------|-(counts)-|

Chorus 3:
|----------------|------|----------------|----------------|----------------|
|----------------|------|----------------|----------------|----------------|
|-5-5-5----------|------|-5-5-5----------|----------------|----------------|
|-------3--3-3-3-|-5(8)-|-------3--3-3-3-|-5-5-5-3--3-3-3-|-0-0-0-3--3-3-3-|

|-----------------|----------------|---------------|
|-----------------|----------------|-----4-5-5-5-5-|
|-5-5-5-5---------|----------------|-5--7----------|
|---------5-5-5-5-|-0-0-0-3--3-3-3-|---------------|

Chorus 4:
|----------------|------|----------------|----------------|----------------|
|----------------|------|----------------|----------------|----------------|
|-5-5-5----------|------|-5-5-5----------|----------------|----------------|
|-------3--3-3-3-|-5(8)-|-------3--3-3-3-|-5-5-5-3--3-3-3-|-0-0-0-3--3-3-3-|

|-----------------|----------------|---------------|----------------|
|-----------------|----------------|-----4-5-5-5-5-|----------------|
|-5-5-5-5---------|----------------|-5--7----------|----------------|
|---------5-5-5-5-|-0-0-0-3--3-3-3-|---------------|-0-0-0-3--3-3-3-|

|-----------------|----------------|-----------------|
|-----------------|-2-2-2-5--5-5-5-|-7-7-7-7-7-5-4---|
|-5-5-5-5---------|----------------|---------------2-|
|---------5-5-5-5-|----------------|-----------------|

Ending:
|------|------|-----------------|------|------|-----------------|
|-5(8)-|-7(8)-|-----------------|------|------|-------------5-4-|
|------|------|-5-5-5-5-5-7-5---|------|------|-----------------|
|------|------|---------------5-|-7(8)-|-3(8)-|-5-5-5-5-5-5-----|

|----------------------|
|----------------------|
|-5--------------------|
|----5--3--(hold, end)-|
comments
We did not receive enough feedback on this tab! Please rate:
print report bad tab
1 2 3 4 5
2 comments total.
0 reply
RoknOutInMyRoom wrote on June 13 2007, 12:21 pm

I totally screwed up! This is like the second time that I forgot something. Okay the part in Chorus 3 and Chorus 4 where it does a scale type thing, it should be this:
|----------------|----------------|
|----------------|------4-7-7-7-7-| sorry! they should be sevens,
|----------------|-5--7-----------| not fives!
|-0-0-0-3--3-3-3-|----------------|

0 reply
TommyGun91 wrote on June 6 2009, 01:40 pm

Haha I was jus about to comment that XD
Awesome tab, just like all your others, 5 stars (Y)

I want to post or [tab]
guest
You may want to rate the tab now too:
select rating
Please do not post tabs as comments. Select "correction" instead!