Oops, an error
Loading. Please wait.

Jet Lag Bass

version 1
version 1
34,330 views 27 this week
no commentswrite comment
1 2 3 4 5
x 9
add to favorites
launch autoscroll
font size
0
reset
guitar tuner
×
Best way to learn
"Jet Lag"
Autoscroll
slow
fast
+/-
esc
set tempo
stop
Author
Intro
|----------------------|
|----------------------|
|----2~----------------|
|---------2~---0~------|

Verse 
G|-----------------------------------------------|
D|-----------------------------------------------|
A|----2-2-2-2-2-2-2-2----------------------------|
E|---------------------------0-0-0-0-0-0-0-0-----|

Prechorus
G|--------------------------------------------------------------------------------------|
D|--------------------------------------------------------------------------------------|
A|--------------------------------------------------------------------------------------|
E|--4-4-4-4-4-4-4-4-4-4--0-0-0-0-0-0-0-0-0-0--4-4-4-4-4-4-4-4-4-4-4--2-2-2-2-2-2-2-2-2-2|

Chorus part 1
G|----------------------------------------------------------------------|
D|----------------------------------------------------------------------|
A|--2-2-2-2-2-2-2-2-----------------------------------------------------|
E|-------------------0-0-0-0-0-0-0-0--4-4-4-4-4-4-4-4--2-2-2-2-2-2-2-2--|

Chorus part 2
G|--------------------------------------|
D|--------------------------------------|
A|--2-2-2-------------------------------|
E|---------0-0--0-0---4-4-4---2-2--2-2--|

Bridge (No really bass part but you can put this in)
G|---------------|
D|---------------|
A|--2~-----------|
E|--------0~-----|

Outro

G|-----------------|
D|-----------------|
A|--2~-------------|
E|------2~--0~-----|


Intro x1
Verse x2
Pre-Chorus x1
Chorus (part 1) x2
Chorus (part 2) x2
Verse x2
Pre-Chorus x1
Chorus (part 1) x2
Chorus (part 2) x2
Bridge (As many as you want)
Chorus (part 1) x2
Chorus (part 2) x2
Outro x1
Suggest correction
comments
print report bad tab
guest
You may want to rate the tab now too:
select rating
Wanna post a correction for this tab? Suggest correction