Oops, an error
Loading. Please wait.
We have Chord Pro version of Jet Lag.
It's the closest thing you can get to the original song and it has interactive parts. Check out the tab »
×
265,379 views 147 this week
6 commentsread comments
1 2 3 4 5
x 42
add to favorites
launch autoscroll
font size
0
reset
how to read this tab
guitar tuner
Autoscroll
slow
fast
+/-
esc
set tempo
stop
Author
The First Single From Simple PLan New Album 
Jet lag.
Enjoy The Tabs if there is anything to correct please let me know!

** here is me playing the song so if you have hard time on playing the song  
please watch:
 http://www.youtube.com/watch?v=4pv66pB_K9g 


[Intro] 

(Gutiar 1) :
e|---------------------------------------------11---------------------|
B|----12----12-11----11-12-----12--14------14--------14---------------| 
G|-------11-------11--------11----------11--------11----11------------|  x2
D|--------------------------------------------------------------------|   
A|--------------------------------------------------------------------|
E|--------------------------------------------------------------------|

(When you hit the 11 note at the end right after this reapeat to the whole thing from the start)

(Guitar 2):
e|--------------------|
B|--------------------|
G|----4-~-------------|
D|----4-~----4-~---2--|
A|----2--~---4-~---2--|
E|-----------2-~---0--|


[Verse] 

(Guitar 1+2)
e|----------------------------------------------|
B|----------------------------------------------|
G|----4-4-4-4-4-4-4-4---------------------------|
D|----4-4-4-4-4-4-4-4------2-2-2-2-2-2-2-2-2----| x2
A|----2-2-2-2-2-2-2-2------2-2-2-2-2-2-2-2-2----|
E|-------------------------0-0-0-0-0-0-0-0-0----|
 **********************************************


[Pre-Chorus]

(Guitar 1+2)
e|-------------------------------------------------------------------------|
B|-------------------------------------------------------------------------|
G|-------------------------------------------------------------------------|
D|--6-6-6-6-6-6-6-6-6-6--2-2-2-2-2-2-2-2-2--6-6-6-6-6-6-6-6--4-4-4-4-4-4-4-|
A|--6-6-6-6-6-6-6-6-6-6--2-2-2-2-2-2-2-2-2--6-6-6-6-6-6-6-6--4-4-4-4-4-4-4-|
E|--4-4-4-4-4-4-4-4-4-4--0-0-0-0-0-0-0-0-0--4-4-4-4-4-4-4-4--2-2-2-2-2-2-2-|
    ********************************************************************


[Chorus]

Chours part 1 (Guitar 1+2):

e|----------------------------------------|
B|----------------------------------------|
G|----4-----------------------------------|
D|----4--x8---2----------6---------4------|  x2
A|----2-------2---x8-----6--x8-----4--x8--|
E|------------0----------4---------2------|

Chours Part 2 (Guitar 2 )
 
     Heart Heart...
e|------------------------------------------|
B|------------------------------------------|
G|----4--4--4-------------------------------|
D|----4--4--4--2-2--2-2---6-6-6---4-4--4-4--| x2    figure the rythym :)
A|----2--2--2--2-2--2-2---6-6-6---4-4--4-4--|
E|-------------0-0--0-0---4-4-4---2-2--2-2--|

Guitar 1:
e|---------------------------------------------11---------------------|
B|----12----12-11----11-12-----12--14------14--------14---------------| 
G|-------11-------11--------11----------11--------11----11------------|  x2
D|--------------------------------------------------------------------|   
A|--------------------------------------------------------------------|
E|--------------------------------------------------------------------|

Then Reapet The Intro But One Time.

verse The same.
Per Chours The same.
Chours the same.


[Bridge]

Bridge no many guitars but you can do this :

e|-----------------------------|
B|-----------------------------|
G|-----------------------------|  do tihs until the chours come.
D|-----------------------------|
A|----2-~----------------------|
E|-----------0---let it ring---|


Then Do Then Chours 4 times.


[Finsh with]

e|----------------------------------|
B|----------------------------------|
G|----4-~---------------------------|
D|----4-~---4~-----2----------------|
A|----2-~---4-~----2--let it ring---|
E|----------2-~----0----------------|



************************************

| x  Dead note
| ~  Vibrato

************************************
Suggest correction
comments
print report bad tab
6 comments total. Showing first comments.
+1 reply
shearer_9 197 May 13, 2011 11:45 PM

Verse should be

x244xx and 022xxx, i don't hear any 244xxx

-1 reply
*SugarDown* 486 May 17, 2011 09:18 PM

yea you right i'll fix

+2 reply
mudbuddha109 10 Aug 21, 2011 05:05 PM

e|----------------------------------------------------|
B|----------------------------------------------------|
G|-4-4-4-4-4-4-4-4------------------------------------|
D|-4-4-4-4-4-4-4-4-4-4-4-4-4-4-4-4-2-2-2-2-2-2-2-2-2-2-2-2-2-2-2-2---| x2
A|-2-2-2-2-2-2-2-2-4-4-4-4-4-4-4-4-2-2-2-2-2-2-2-2-2-2-2-2-2-2-2-2---|
E|-----------------2-2-2-2-2-2-2-2-0-0-0-0-0-0-0-0-0-0-0-0-0-0-0-0---|

Check your spelling mate (verser, reapeat and gutiar) - thanks for the awesome tab! Legend!

guest
You may want to rate the tab now too:
select rating
Wanna post a correction for this tab? Suggest correction