Oops, an error
Loading. Please wait.

Jet Lag Bass Tab

version 2
version 2
7,679 views 6 this week
no commentswrite comment
1 2 3 4 5
excellent!
x 4
add to favorites
launch autoscroll
font size
0
reset
guitar tuner
Autoscroll
slow
fast
+/-
esc
set tempo
stop
Help us to improve Ultimate-Guitar.com Take our survey!
×
Difficulty
novice
-David :D

Intro
|----------------------|
|----------------------|
|----2~--------7~------|
|---------2~-----------|

Verse 
G|-----------------------------------------------|
D|-----------------------------------------------|
A|---7/2-2-2-2-2-2-2-2-------7-7-7-7-7-7-7-7-----|
E|-----------------------------------------------|

Prechorus
G|--------------------------------------------------------|
D|--------------------------------------------------------|
A|--11-11-11-11-11-11-11-11-11-11-11--7-7-7-7-7-7-7-7-7-7-|
E|--------------------------------------------------------|

------------------------------------------ -------------|
------------------------------------------ -------------|
-11-11-11-11-11-11-11-11-11-11-11--9-9-9-9 -9-9-9-9-9-9-|
------------------------------------------ -------------|

Chorus part 1
G|---------------------------------------------------------------------------------------|
D|---------------------------------------------------------------------------------------|
A|--2-2-2-2-2-2-2-2--7-7-7-7-7-7-7-7--11-11-11-11-11-11-11-11-11-11--9-9-9-9-9-9-9-9-9-9-|
E|---------------------------------------------------------------------------------------|

Chorus part 2
G|----------------------------------------|
D|----------------------------------------|
A|--2-2-2--7-7--7-7---11-11-11--9-9--9-9--|
E|----------------------------------------|

Bridge (No really bass part but you can put this in)
G|---------------|
D|---------------|
A|--2~----7~-----|
E|---------------|

Outro

G|-----------------|
D|-----------------|
A|--2~------7~-----|
E|------2~---------|


Intro x1
Verse x2
Pre-Chorus x1
Chorus (part 1) x2
Chorus (part 2) x2
Verse x2
Pre-Chorus x1
Chorus (part 1) x2
Chorus (part 2) x2
Bridge (As many as you want)
Chorus (part 1) x2
Chorus (part 2) x2
Outro x1

Forgive any errors. This is my first tab. I saw David play live these notes. 
Something is missing, however, is almost complete: D
Suggest correction
comments
print report bad tab
guest
You may want to rate the tab now too:
select rating
Wanna post a correction for this tab? Suggest correction