Oops, an error
Loading. Please wait.

Jet Lag Bass Tab

version 3
version 3
2,031 views 1 this week
no commentswrite comment
1 2 3 4 5
please rate
add to favorites
launch autoscroll
font size
0
reset
guitar tuner
Autoscroll
slow
fast
+/-
esc
set tempo
stop
Help us to improve Ultimate-Guitar.com Take our survey!
×
Author
Difficulty
novice
Intro
G|----------------------|
D|----------------------|
A|----2~----------------|
E|---------2~---0~------|

Verse
G|-----------------------------------------------|
D|-----------------------------------------------|
A|----2-2-2-2-2-2-2-2----------------------------|
E|---------------------------0-0-0-0-0-0-0-0-----|

G|-----------------------------------------------|
D|-----------------------------------------------|
A|----2-2-2-2-2-2-2-2----------------------------|
E|---------------------------0-0-0-0-0-0-0-0-----|

Pre-Chorus
G|--------------------------------------------------------------------------------------|
D|--------------------------------------------------------------------------------------|
A|--------------------------------------------------------------------------------------|
E|--4-4-4-4-4-4-4-4-4-4--0-0-0-0-0-0-0-0-0-0--4-4-4-4-4-4-4-4-4-4-4--2-2-2-2-2-2-2-2-2-2|

Chorus
G|----------------------------------------------------------------------|
D|----------------------------------------------------------------------|
A|--2-2-2-2-2-2-2-2-----------------------------------------------------|
E|-------------------0-0-0-0-0-0-0-0--4-4-4-4-4-4-4-4--2-2-2-2-2-2-2-2--|

G|----------------------------------------------------------------------|
D|----------------------------------------------------------------------|
A|--2-2-2-2-2-2-2-2-----------------------------------------------------|
E|-------------------0-0-0-0-0-0-0-0--4-4-4-4-4-4-4-4--2-2-2-2-2-2-2-2--|

G|--------------------------------------|
D|--------------------------------------|
A|--2-2-2-------------------------------|
E|---------0-0--0-0---4-4-4---2-2--2-2--|

G|--------------------------------------|
D|--------------------------------------|
A|--2-2-2-------------------------------|
E|---------0-0--0-0---4-4-4---2-2--2-2--|

Verse
G|-----------------------------------------------|
D|-----------------------------------------------|
A|----2-2-2-2-2-2-2-2----------------------------|
E|---------------------------0-0-0-0-0-0-0-0-----|

G|-----------------------------------------------|
D|-----------------------------------------------|
A|----2-2-2-2-2-2-2-2----------------------------|
E|---------------------------0-0-0-0-0-0-0-0-----|

Pre-Chorus
G|--------------------------------------------------------------------------------------|
D|--------------------------------------------------------------------------------------|
A|--------------------------------------------------------------------------------------|
E|--4-4-4-4-4-4-4-4-4-4--0-0-0-0-0-0-0-0-0-0--4-4-4-4-4-4-4-4-4-4-4--2-2-2-2-2-2-2-2-2-2|

Chorus
G|----------------------------------------------------------------------|
D|----------------------------------------------------------------------|
A|--2-2-2-2-2-2-2-2-----------------------------------------------------|
E|-------------------0-0-0-0-0-0-0-0--4-4-4-4-4-4-4-4--2-2-2-2-2-2-2-2--|

G|----------------------------------------------------------------------|
D|----------------------------------------------------------------------|
A|--2-2-2-2-2-2-2-2-----------------------------------------------------|
E|-------------------0-0-0-0-0-0-0-0--4-4-4-4-4-4-4-4--2-2-2-2-2-2-2-2--|

G|--------------------------------------|
D|--------------------------------------|
A|--2-2-2-------------------------------|
E|---------0-0--0-0---4-4-4---2-2--2-2--|

G|--------------------------------------|
D|--------------------------------------|
A|--2-2-2-------------------------------|
E|---------0-0--0-0---4-4-4---2-2--2-2--|

Bridge
G|---------------|
D|---------------|
A|--2~-----------|
E|--------0~-----|

Chorus
G|----------------------------------------------------------------------|
D|----------------------------------------------------------------------|
A|--2-2-2-2-2-2-2-2-----------------------------------------------------|
E|-------------------0-0-0-0-0-0-0-0--4-4-4-4-4-4-4-4--2-2-2-2-2-2-2-2--|

G|----------------------------------------------------------------------|
D|----------------------------------------------------------------------|
A|--2-2-2-2-2-2-2-2-----------------------------------------------------|
E|-------------------0-0-0-0-0-0-0-0--4-4-4-4-4-4-4-4--2-2-2-2-2-2-2-2--|

G|--------------------------------------|
D|--------------------------------------|
A|--2-2-2-------------------------------|
E|---------0-0--0-0---4-4-4---2-2--2-2--|

G|--------------------------------------|
D|--------------------------------------|
A|--2-2-2-------------------------------|
E|---------0-0--0-0---4-4-4---2-2--2-2--|

Outro
G|-----------------|
D|-----------------|
A|--2~-------------|
E|------2~--0~-----|
Suggest correction
Give kudos to tab author, rate the tab!
1 2 3 4 5
comments
print report bad tab
guest
You may want to rate the tab now too:
select rating
Please do not post tabs as comments. Select "correction" instead!