Oops, an error
Loading. Please wait.

Jet Lag Bass Tab

version 4
version 4
2,164 views 3 this week
no commentswrite comment
1 2 3 4 5
please rate
add to favorites
launch autoscroll
font size
0
reset
guitar tuner
Tab Pro tools
  • play this tab
  • loop segment
  • change instrument
  • show fretboard
  • metronome
×
Best way to learn
"Jet Lag"
Autoscroll
slow
fast
+/-
esc
set tempo
stop
Contributor
Jet Lag
Simple Plan
Tabbed by: avill616@yahoo.com

This is for my nephew Arvin Roy. Here's the tab for the song enjoy

Intro 
G|------------|----------|----------|
D|------------|----------|----------|
A|------------|-2--------|-2--------|
E|------------|----2---0-|----2---0-|

Verse 
G|-------------|
D|-------------|
A|-2(16)-------|
E|-------0(16)-| 2x

Prechorus 
G|-----------------------------------------|
D|-----------------------------------------|
A|--------------------------------------/9-|
E|-4(16)--0(16)--4(16)--2-2-2-2-2-2-2-2----|

Chorus1 
G|-------------------------------------------------------------------|
D|-------------------------------------------------------------------|
A|-2-2-2-2-2-2-2-2---------------------------------------------------|
E|-----------------0-0-0-0-0-0-0-0--4-4-4-4-4-4-4-4--2-2-2-2-2-2-2-2-|2x

G|------------------------------------|------------------------------|
D|------------------------------------|------------------------------|
A|-2--2-------------------------------|-2--2-------------------------|
E|-------0--0--0--0--4--4--2--2--2--2-|-------0--0--0--0--4--4--2--2-|

G|----------|
D|----------|
A|-2--------|
E|----2---0-|

Repeat verse, prechorus 

Chorus2 
G|-------------------------------------------------------------------|
D|-------------------------------------------------------------------|
A|-2-2-2-2-2-2-2-2---------------------------------------------------|
E|-----------------0-0-0-0-0-0-0-0--4-4-4-4-4-4-4-4--2-2-2-2-2-2-2-2-|2x

G|------------------------------------|
D|------------------------------------|
A|-2--2-------------------------------|
E|-------0--0--0--0--4--4--2--2--2--2-|2x

Bridge 
G|--------------------------------------------------------------|
D|--------------------------------------------------------------|
A|-2---2/7---7\2---2/7---7\2---2/7---7\2---2/7--7-7-7-7-7-7-7-7-|
E|--------------------------------------------------------------|

Chorus3 
G|------------|---------------------------------|
D|------------|---------------------------------|
A|------------|---------------------------------|
E|------------|4-4-4-4-4-4-4-4--2-2-2-2-2-2-2-2-|

G|-------------------------------------------------------------------|
D|-------------------------------------------------------------------|
A|-2-2-2-2-2-2-2-2---------------------------------------------------|
E|-----------------0-0-0-0-0-0-0-0--4-4-4-4-4-4-4-4--2-2-2-2-2-2-2-2-|3x

G|------------------------------------|
D|------------------------------------|
A|-2--2-------------------------------|
E|-------0--0--0--0--4--4--2--2--2--2-|2x

G|----------|
D|----------|
A|-2--------|
E|----2---0-|

comments
We did not receive enough feedback on this tab! Please rate:
print report bad tab
1 2 3 4 5
I want to post or [tab]
guest
You may want to rate the tab now too:
select rating
Please do not post tabs as comments. Select "correction" instead!