Oops, an error
Loading. Please wait.

Jet Lag Tab

version 4
version 4
15,204 views 9 this week
2 commentsread comments
1 2 3 4 5
please rate
add to favorites
launch autoscroll
font size
0
reset
how to read this tab
guitar tuner
Autoscroll
slow
fast
+/-
esc
set tempo
stop
Help us to improve Ultimate-Guitar.com Take our survey!
×
Author
Difficulty
novice
Here are the tabs I use to play that song.
My cover can be seen on youtube:
http://www.youtube.com/watch?v=Y4lZ7i_kNSU
Enjoy!!

Rhythm guitar: (standard tuning)
Opening

E 	| --------------------------------|
B 	| --------------------------------|
G	| ---4----------------------------|
D 	| ---4-------4------2-------------|  2x (let the chords ring)
A 	| ---2-------4------2-------------|
E 	| -----------2------0-------------|

         B       F#     E

Verse:

    PM---------------------------------------------------------------|
E     | -------------------------------------------------------------|
B     | -------------------------------------------------------------|
G     | ---4---------------4-----------------------------------------|
D     | ---4-16x--2--------4--16x----2--------6--------2-----6-------|
A     | ---2------2-16x----2---------2--16x---6--16x---2-16x-6--16x--|
E     | ----------0------------------0--------4--------0-----4-------|

	     B	        E        B         E       G#        E     G#

    PM---------|   |----|   |------------|
E     | -------|---|----|---|---|--------|
B     | -------|---|----|---|---|--------|
G     | -------|---|----|---|---|--------|
D     | ---2-2---2---2-2---2---2---2-2---|    mute the last chord right
A     | ---2-2---2---2-2---2---2---2-2---|    after you played it open
E     | ---0-0---0---0-0---0---0---0-0---|

	     E

Chorus:

	(strumming pattern: D D DUD | U UD DUDU  | D D DUD  |  U DU DUDU )
E 	| ----------------------------------------------------|
B 	| ----------------------------------------------------|
G	| ---4------------------------------------------------|
D 	| ---4-5x-----2---------6----------4------------------|	2x
A 	| ---2--------2-7x------6-5x-------4--7x--------------|
E 	| ------------0---------4----------2------------------|

	     B	          E         G#         F#






"heart, heart,.."

(add a palm muting structure in there, figure it out by listening to the song carefully, 
or watch my cover at  http://www.youtube.com/watch?v=Y4lZ7i_kNSU )

E 	| ---------------------------------------------------------|
B 	| ---------------------------------------------------------|
G	| ---4-----------------------------------------------------|
D 	| ---4--------2----------6----------4----------------------|  2x
A 	| ---2--------2----------6----------4----------------------|
E 	| ------------0----------4----------2----------------------|

	     B	          E          G#         F#

After that play the Opening,
Then the Verse, and again the Chorus

end the second chorus with one more F# powerchord and let it ring out completely (2:06)

"I miss you so bad, ..."

    PM-------------------------------------------------------------|
E     | -----------------------------------------------------------|
B     | -----------------------------------------------------------|
G     | ---4------------------4------------------4-----------------|
D     | ---4-16x-----2--------4--16x----2--------4--16x--2---------|
A     | ---2---------2-16x----2---------2--16x---2-------2--16x----|
E  | -------------0------------------0----------------0------------|

	     B	          E        B         E        B       E

(on the last E powerchord lift up your palm slowly, to increase the volume, and play the 
very last strum completely open. Mute it afterwards !!

"Going out of my head..."

I like to slide down my left hand right into the G# powerchord, at this point:

	(strumming pattern: D D DUD | U UD DUDU )
E 	| ------------------------------------------------------|
B 	| ------------------------------------------------------|
G	| ------------------------------------------------------|
D 	| ---6----------4---------------------------------------|
A 	| ---6-5x-------4-7x------------------------------------|
E 	| ---4----------2---------------------------------------|

	       G#	        F#

Then into the Chorus (played 3x)
After that play again the Opening = Ending (let the last chord ring out)

________________________________________________________________________
________________________________________________________________________

Lead guitar: (standard tuning)
Opening:

E	|---------------------------------------------11------------|
B	|----12----12-11----11-12-----12--14------14--------14------|
G	|-------11-------11--------11----------11--------11----11---|  4x
D	|-----------------------------------------------------------|
A	|-----------------------------------------------------------|
E	|-----------------------------------------------------------|


When the rhythm hits the G# powerchord in the Verse, the lead guitar does something like this:

E 	| ----7-7-7-7---9-9-9-9-----              --7-7-7-7-7-----|
B 	| -----7-7-7-7---7-7-7-7---- <- played 3x ---7-7-7-7------|
G	| --------------------------------------------------------|
D 	| --------------------------------------------------------|
A 	| --------------------------------------------------------|
E 	| --------------------------------------------------------|

"heart, heart,..."

E    |---------------------------------------------11----------------|
B    |----12----12-11----11-12-----12--14------14--------14----------|
G    |-------11-------11--------11----------11--------11----11-------|  4x
D    |---------------------------------------------------------------|
A    |---------------------------------------------------------------|
E    |---------------------------------------------------------------|

It's not exactly played 4 times, there's a pause at the end and then it starts again for 
another time. Check my cover to make sure!

Then into the Verse part again,

"heart, heart,..."

E    |---------------------------------------------11----------------|
B    |----12----12-11----11-12-----12--14------14--------14----------|
G    |-------11-------11--------11----------11--------11----11-------|  4x
D    |---------------------------------------------------------------|
A    |---------------------------------------------------------------|
E    |---------------------------------------------------------------|

This time it's played exactly 4 times !

At the very end play that riff again 4 times !!


My cover can be seen at http://www.youtube.com/watch?v=Y4lZ7i_kNSU
Enjoy!!
Suggest correction
Give kudos to tab author, rate the tab!
1 2 3 4 5
comments
print report bad tab
2 comments total.
+1 reply
DeSoeren86 31 wrote on October 14 2011, 04:44 pm

WMG has blocked my cover worldwide, but now it's back on at: http://www.youtube.com/watch?v=oDi-J4lOPUQ

Enjoy!!

+1 reply
thund3r86 41 wrote on October 30 2011, 08:17 am

excellent tab and great cover dude!!

guest
You may want to rate the tab now too:
select rating
Wanna post a correction for this tab? Suggest correction