Oops, an error
Loading. Please wait.

Jet Lag Bass Tab

version 5
version 5
2,567 views 6 this week
no commentswrite comment
1 2 3 4 5
2 more votes to show rating
add to favorites
launch autoscroll
font size
0
reset
guitar tuner
Autoscroll
slow
fast
+/-
esc
set tempo
stop
Help us to improve Ultimate-Guitar.com Take our survey!
×
Author
Difficulty
novice
Tabbed by Andaye
Email: startthesparks@gmail.com

First tab, but I'm pretty sure these are correct, and it sounded great when I played live.
It'll be nice if you didn't steal my tab and try to pass it off as your own thanks :)

Intro:

G|-------------|
D|-------------|  x2
A|---2~--------|
E|-----2~--0~--|

Verse 1:

G|------------------------------------|
D|------------------------------------|  x2
A|-2222222222222222/7777777777777777--|
E|------------------------------------|

Pre-chorus:

G|---------------------------------------------------------------|
D|---------------------------------------------------------------|
A|---------------------------------------------------------------|
E|-444444444444444-0000000000000000-4444444444444444-2222222222\-|

Chorus:

G|------------------------------------|
D|------------------------------------|  x2
A|---22222222-------------------------|
E|-----------000000000444444442222222-|

G|------------------------------|
D|------------------------------|
A|--2-2-------------------------|
E|------0-00-0-0--4-4-2-22-2-2--|

G|--------|
D|--------|
A|-2------|
E|---2-0--|

Verse 2:

G|------------------------------------|
D|------------------------------------|  x2
A|-22222222222222222/7777777777777777-|
E|------------------------------------|

G|----------------------------------------------------3h4-3h4----------|
D|---4-4)-6666666666666666----------------666666666666-------444444444-|
A|-(7-7-------------------7777777777777777-----------------------------|
E|---------------------------------------------------------------------|

Chorus

Bridge:

G|----------|          G|-----------|
D|----------| x5 then  D|-----------|
A|-2~--2/7~-|          A|--77777777-|
E|----------|          E|-----------|

Outro:

G|---------------------------------------------------|
D|---------------------------------------------------|
A|------------------22222222-------------------------|
E|--4444444422222222--------000000004444444422222222-|

G|--------------------------|
D|--------------------------| x2
A|-2-2----------------------|
E|----0-00-0-0-4-4-2-22-2-2-|

G|---------|
D|---------|
A|-2-------|
E|---2--0~-|



Legend:
| /  slide up
| \  slide down
| h  hammer-on
| p  pull-off
| ~  vibrato
| +  harmonic
| x  Mute note

Suggest correction
Give kudos to tab author, rate the tab!
1 2 3 4 5
comments
print report bad tab
guest
You may want to rate the tab now too:
select rating
Wanna post a correction for this tab? Suggest correction