Oops, an error
Loading. Please wait.

Jet Lag Tab

version 5
version 5
2,956 views 3 this week
no commentswrite comment
1 2 3 4 5
2 more votes to show rating
add to favorites
launch autoscroll
font size
0
reset
how to read this tab
guitar tuner
Autoscroll
slow
fast
+/-
esc
set tempo
stop
Help us to improve Ultimate-Guitar.com Take our survey!
×
Difficulty
intermediate
Intro (Gutiar 1) :

e|---------------------------------------11------------------------|
B|----12----12-11----11-12-----12--14--14-----14-------------------|
G|-------11-------11--------11-------11----11----11----------------|  x2
D|-----------------------------------------------------------------|
A|-----------------------------------------------------------------|
E|-----------------------------------------------------------------|

(When you hit the 11 note at the end right after this reapeat to the whole thing from the start)

intro (Guitar 2):

e|--------------------|
B|--------------------|
G|----4-~-------------|
D|----4-~----4-~---2--|
A|----2-~----4-~---2--|
E|-----------2-~---0--|

Verse 1

e|----------------------------------------------|
B|----------------------------------------------|
G|----4-4-4-4-4-4-4-4---------------------------|
D|----4-4-4-4-4-4-4-4------2-2-2-2-2-2-2-2-2----| x2
A|----2-2-2-2-2-2-2-2------2-2-2-2-2-2-2-2-2----|
E|-------------------------0-0-0-0-0-0-0-0-0----|
      **************************************

pre-Chorus

e|-------------------------------------------------------------------------|
B|-------------------------------------------------------------------------|
G|-------------------------------------------------------------------------|
D|--6-6-6-6-6-6-6-6-6-6--2-2-2-2-2-2-2-2-2--6-6-6-6-6-6-6-6--4-4-4-4-4-4-4-|
A|--6-6-6-6-6-6-6-6-6-6--2-2-2-2-2-2-2-2-2--6-6-6-6-6-6-6-6--4-4-4-4-4-4-4-|
E|--4-4-4-4-4-4-4-4-4-4--0-0-0-0-0-0-0-0-0--4-4-4-4-4-4-4-4--2-2-2-2-2-2-2-|
    **********************************************************************

Chorus part 1
(strumming pattern: D D DUD | U UD DUDU  | D D DUD  |  U DU DUDU )
E| ------------------------------------------------------|
B| ------------------------------------------------------|
G| ---4--------------------------------------------------|
D| ---4-5x-----2----------6-----------4------------------|      2x
A| ---2--------2-7x-------6-5x--------4--7x--------------|
E| ------------0----------4-----------2------------------|

Chorus Part 2 (Guitar 2 )

     Heart Heart...
e|------------------------------------------|
B|------------------------------------------|
G|----4--4--4-------------------------------|
D|----4--4--4--2-2--2-2---6-6-6---4-4--4-4--| x2    figure the rythym :)
A|----2--2--2--2-2--2-2---6-6-6---4-4--4-4--|
E|-------------0-0--0-0---4-4-4---2-2--2-2--|

Guitar 1:
e|------------------------------------------11-------------------|
B|----12----12-11----11-12-----12--14----14-----14---------------|
G|-------11-------11--------11---------11----11----11------------|  x2
D|---------------------------------------------------------------|
A|---------------------------------------------------------------|
E|---------------------------------------------------------------|

Then Reapet The Intro But One Time.
e|-----------------------------------------11------------------|
B|----12----12-11----11-12-----12--14---14----14---------------|
G|-------11-------11--------11--------11---11----11------------|
D|-------------------------------------------------------------|
A|-------------------------------------------------------------|
E|-------------------------------------------------------------|

Verse 2

e|----------------------------------------------|
B|----------------------------------------------|
G|----4-4-4-4-4-4-4-4---------------------------|
D|----4-4-4-4-4-4-4-4------2-2-2-2-2-2-2-2-2----| x2
A|----2-2-2-2-2-2-2-2------2-2-2-2-2-2-2-2-2----|
E|-------------------------0-0-0-0-0-0-0-0-0----|
      **************************************

pre-Chorus

e|-------------------------------------------------------------------------|
B|-------------------------------------------------------------------------|
G|-------------------------------------------------------------------------|
D|--6-6-6-6-6-6-6-6-6-6--2-2-2-2-2-2-2-2-2--6-6-6-6-6-6-6-6--4-4-4-4-4-4-4-|
A|--6-6-6-6-6-6-6-6-6-6--2-2-2-2-2-2-2-2-2--6-6-6-6-6-6-6-6--4-4-4-4-4-4-4-|
E|--4-4-4-4-4-4-4-4-4-4--0-0-0-0-0-0-0-0-0--4-4-4-4-4-4-4-4--2-2-2-2-2-2-2-|
    **********************************************************************

Chorus part 1
(strumming pattern: D D DUD | U UD DUDU  | D D DUD  |  U DU DUDU )
E| ------------------------------------------------------|
B| ------------------------------------------------------|
G| ---4--------------------------------------------------|
D| ---4-5x-----2----------6-----------4------------------|      2x
A| ---2--------2-7x-------6-5x--------4--7x--------------|
E| ------------0----------4-----------2------------------|

Chorus Part 2

     Heart Heart...
e|------------------------------------------|
B|------------------------------------------|
G|----4--4--4-------------------------------|
D|----4--4--4--2-2--2-2---6-6-6---4-4--4-4--| x2    figure the rythym :)
A|----2--2--2--2-2--2-2---6-6-6---4-4--4-4--|
E|-------------0-0--0-0---4-4-4---2-2--2-2--|.

Bridge no many guitars but you can do this :

e|-----------------------------|
B|-----------------------------|
G|-----------------------------|  do tihs until the chours come.
D|-----------------------------|
A|----2-~----------------------|
E|-----------0---let it ring---|


Then Do Chorus 4 times.
Chorus part 1
(strumming pattern: D D DUD | U UD DUDU  | D D DUD  |  U DU DUDU )
E| ------------------------------------------------------|
B| ------------------------------------------------------|
G| ---4--------------------------------------------------|
D| ---4-5x-----2----------6-----------4------------------|      2x
A| ---2--------2-7x-------6-5x--------4--7x--------------|
E| ------------0----------4-----------2------------------|

Chorus Part 2

     Heart Heart...
e|------------------------------------------|
B|------------------------------------------|
G|----4--4--4-------------------------------|
D|----4--4--4--2-2--2-2---6-6-6---4-4--4-4--| x2    figure the rythym :)
A|----2--2--2--2-2--2-2---6-6-6---4-4--4-4--|
E|-------------0-0--0-0---4-4-4---2-2--2-2--|.

Chorus part 1
(strumming pattern: D D DUD | U UD DUDU  | D D DUD  |  U DU DUDU )
E| ------------------------------------------------------|
B| ------------------------------------------------------|
G| ---4--------------------------------------------------|
D| ---4-5x-----2----------6-----------4------------------|      2x
A| ---2--------2-7x-------6-5x--------4--7x--------------|
E| ------------0----------4-----------2------------------|

Chorus Part 2

     Heart Heart...
e|------------------------------------------|
B|------------------------------------------|
G|----4--4--4-------------------------------|
D|----4--4--4--2-2--2-2---6-6-6---4-4--4-4--| x2    figure the rythym :)
A|----2--2--2--2-2--2-2---6-6-6---4-4--4-4--|
E|-------------0-0--0-0---4-4-4---2-2--2-2--|.

Chorus part 1
(strumming pattern: D D DUD | U UD DUDU  | D D DUD  |  U DU DUDU )
E| ------------------------------------------------------|
B| ------------------------------------------------------|
G| ---4--------------------------------------------------|
D| ---4-5x-----2----------6-----------4------------------|      2x
A| ---2--------2-7x-------6-5x--------4--7x--------------|
E| ------------0----------4-----------2------------------|

Chorus Part 2

     Heart Heart...
e|------------------------------------------|
B|------------------------------------------|
G|----4--4--4-------------------------------|
D|----4--4--4--2-2--2-2---6-6-6---4-4--4-4--| x2    figure the rythym :)
A|----2--2--2--2-2--2-2---6-6-6---4-4--4-4--|
E|-------------0-0--0-0---4-4-4---2-2--2-2--|.

Chorus part 1
(strumming pattern: D D DUD | U UD DUDU  | D D DUD  |  U DU DUDU )
E| ------------------------------------------------------|
B| ------------------------------------------------------|
G| ---4--------------------------------------------------|
D| ---4-5x-----2----------6-----------4------------------|      2x
A| ---2--------2-7x-------6-5x--------4--7x--------------|
E| ------------0----------4-----------2------------------|

Chorus Part 2

     Heart Heart...
e|------------------------------------------|
B|------------------------------------------|
G|----4--4--4-------------------------------|
D|----4--4--4--2-2--2-2---6-6-6---4-4--4-4--| x2    figure the rythym :)
A|----2--2--2--2-2--2-2---6-6-6---4-4--4-4--|
E|-------------0-0--0-0---4-4-4---2-2--2-2--|.


Finsh with:

e|----------------------------------|
B|----------------------------------|
G|----4-~---------------------------|
D|----4-~---4~-----2----------------|
A|----2-~---4-~----2--let it ring---|
E|----------2-~----0----------------|
Suggest correction
Give kudos to tab author, rate the tab!
1 2 3 4 5
comments
print report bad tab
guest
You may want to rate the tab now too:
select rating
Wanna post a correction for this tab? Suggest correction