Oops, an error
Loading. Please wait.

Jump Tab

version 3
version 3

Whole song

Interactive

3,748 views 3 this week
no commentswrite comment
1 2 3 4 5
2 more votes to show rating
add to favorites
launch autoscroll
font size
0
reset
how to read this tab
guitar tuner
Autoscroll
slow
fast
+/-
esc
set tempo
stop
Help us to improve Ultimate-Guitar.com Take our survey!
×
Tuning
D A D G B E
Tabbed by:g3g78@aim.com
Email:g3g78@aim.com

Tuning:drop D

me and my teacher did this is sounds very close to the song
there are 2 guitars i cant tab the whole song for both but ill do my best

guitar 1 intro
e|--------------------------------------------------------------------------|
B|--------------------------------------------------------------------------|
G|--------1------1----------------------------------------------------------|x4
D|------------------------6-------7-6---------------------------------------|
A|--2-2-x---2-2-2---7-7-x---9-9-9-------------------------------------------|
E|--2-2-x---2-2-2---7-7-x---9-9-9-------------------------------------------|

guitar 2 intro(gets louder  after u play the guitar 1 intro twice)start when guitar 1 
playing
e|--------------------------------------------------------------------------|
B|--------------------------------------------------------------------------|
G|--13-13-x-x--13-13-x-x--13-13-x-x-13--9-9-x-x-9--11-11-11-11--14-13-------|x4
D|---x--x-x-x--x--x--x-x---x--x-x-x-x---x-x-x-x-x--x--x--x-x----x--x--------|
A|--11-13-x-x--11-13-x-x--11-13-x-x-11--7-7-x-x-7--9--9--9--9---12-11-------|
E|--------------------------------------------------------------------------|

verse 1 .=palm mute
    . .    . .    . .    . .    . .    . .    . .    . .    . .
e|--------------------------------------------------------------------------|
B|--------------------------------------------------------------------------|
G|--------------------------------------------------------------------------|
D|--7-7-7--7-7-7--7-7-7--7-7-7--9-9-9--9-9-9--9-9-9--9-9-9--9-9-9-----------|
A|--7-7-7--7-7-7--7-7-7--7-7-7--9-9-9--9-9-9--9-9-9--9-9-9--9-9-9-----------|
E|--7-7-7--7-7-7--7-7-7--7-7-7--9-9-9--9-9-9--9-9-9--9-9-9--9-9-9-----------|

verse 1 cont.
    . .    . .    . .    . .    . .    . .
e|--------------------------------------------------------------------------|
B|--------------------------------------------------------------------------|
G|--------------------------------------------------------------------------|
D|--7-7-7--7-7-7--7-7-7--7-7-7--9-9-9--9-9-9--------------------------------|
A|--7-7-7--7-7-7--7-7-7--7-7-7--9-9-9--9-9-9--------------------------------|
E|--7-7-7--7-7-7--7-7-7--7-7-7--9-9-9--9-9-9--------------------------------|

chorus guitar 1
e|--------------------------------------------------------------------------|
B|--------------------------------------------------------------------------|
G|------------play intro here x 3-------------------------------------------|
D|--------------------------------------------------------------------------|
A|--------------------------------------------------------------------------|
E|--------------------------------------------------------------------------|
chorus guitar 2
e|--------------------------------------------------------------------------|
B|--------------------------------------------------------------------------|
G|------------play guitar 2 intro here x 3----------------------------------|
D|--------------------------------------------------------------------------|
A|--------------------------------------------------------------------------|
E|--------------------------------------------------------------------------|

chorus cont. guitar 1 or 2 (figure our pattern from song)
e|--0-0-0-0-0-0-0-0--0-0-0-0-0-0-0-0----------------------------------------|
B|--0-0-0-0-0-0-0-0--0-0-0-0-0-0-0-0----------------------------------------|
G|--0-0-0-0-0-0-0-0--0-0-0-0-0-0-0-0----------------------------------------|
D|--7-7-7-7-7-7-7-7--9-9-9-9-9-9-9-9----------------------------------------|
A|--7-7-7-7-7-7-7-7--9-9-9-9-9-9-9-9-----2-2--2-2--2-2----------------------|
E|--7-7-7-7-7-7-7-7--9-9-9-9-9-9-9-9-----2-2--2-2--2-2----------------------|

verse 2 (play this part lightly)
e|--7---7---7---7---6---6---7---7-------------------------------------------|
B|--9---9---9---9---6---6---7---7-------------------------------------------|
G|--9---9---9---9---7---7---8---8-------------------------------------------|x4
D|--------------------------------------------------------------------------|
A|--------------------------------------------------------------------------|
E|--------------------------------------------------------------------------|

verse 2 cont.
e|--------------------------------------------------------------------------|
B|-------play verse 1 here--------------------------------------------------|
G|--------------------------------------------------------------------------|
D|--------------------------------------------------------------------------|
A|--------------------------------------------------------------------------|
E|--------------------------------------------------------------------------|

chorus guitar 1
e|--------------------------------------------------------------------------|
B|------play guitar 1 chorus------------------------------------------------|
G|--------------------------------------------------------------------------|
D|--------------------------------------------------------------------------|
A|--------------------------------------------------------------------------|
E|--------------------------------------------------------------------------|

chorus guitar 2
e|--------------------------------------------------------------------------|
B|-----play guitar 2 chorus-------------------------------------------------|
G|--------------------------------------------------------------------------|
D|--------------------------------------------------------------------------|
A|--------------------------------------------------------------------------|
E|--------------------------------------------------------------------------|

i do not remember the solos for both but the rest of the song is the chorus in variated 
its easy to figure out
Suggest correction
Give kudos to tab author, rate the tab!
1 2 3 4 5
comments
print report bad tab
guest
You may want to rate the tab now too:
select rating
Wanna post a correction for this tab? Suggest correction