Oops, an error
Loading. Please wait.

Me Against The World Bass Tab

version 1
version 1

Whole song

2,963 views 1 this week
6 commentsread comments
1 2 3 4 5
x 3
add to favorites
launch autoscroll
font size
0
reset
guitar tuner
Autoscroll
slow
fast
+/-
esc
set tempo
stop
Help us to improve Ultimate-Guitar.com Take our survey!
×
Author
Difficulty
novice
Its maybe not perfect, but here it comes

Intro:
|-------------|
|-------------|
|-6~-6~-2~-4~-| 2x
|-------------|

Verse:
|-------------------------------------|
|-------------------------------------|
|-66666666-22222222----------44444444-| 2x
|-------------------22222222----------|

Pre-Chorus:
|-------------|
|-------------|
|-6~-6~-2~-4~-|
|-------------|

Chours part 1:
|-------------------------------------|
|-------------------------------------|
|-66666666-22222222----------44444444-| 2x
|-------------------22222222----------|

Chorus part 2
|------------|
|------------|
|-66666664~~-|
|------------|

Intro:
|-------------|
|-------------|
|-6~-6~-2~-4~-| 2x
|-------------|

Verse:
|-------------------------------------|
|-------------------------------------|
|-66666666-22222222----------44444444-| 2x
|-------------------22222222----------|

Pre-Chorus:
|-------------|
|-------------|
|-6~-6~-2~-4~-|
|-------------|

Chours part 1:
|-------------------------------------|
|-------------------------------------|
|-66666666-22222222----------44444444-| 2x
|-------------------22222222----------|

Chorus part 3(dont be scared, but part 2 isnt played at this step):
|---------------------|
|---------------------|
|-6(play it 15 times)-|
|---------------------|

Bridge part 1:
|-----------|
|-----------|
|-6~~~-4~~~-|
|-----------|

|---------------------|
|---------------------|
|-6(play it 24 times)-|
|---------------------|

Bridge part 2:
|----------------------------------------|
|----------------------------------------|
|-44-22----44-66-44-22-44-66-666-666-666-| 2x
|-------22-------------------------------|

Bridge part 3:
|----------------------------|
|----------------------------|
|-44-22----44-66-44-22-44-66-| 
|-------22-------------------|

|------------|--------------------|
|------------|--------------------|
|-44-22-44-6-|4-(play 4 16 times)-|
|------------|--------------------|

Chours part 1:
|-------------------------------------|
|-------------------------------------|
|-66666666-22222222----------44444444-| 2x
|-------------------22222222----------|

chorus part 4:
|-------------------------|
|-------------------------|
|-44-22----44-66-44-22-44-| 
|-------22----------------|

Chours part 1:
|-------------------------------------|
|-------------------------------------|
|-66666666-22222222----------44444444-| 2x
|-------------------22222222----------|

chorus part 5:
|----------------------------|
|----------------------------|
|-44-22----44-66-44-22-44-66-| 
|-------22-------------------|

|------------|--------------------|-------|
|------------|--------------------|-------|
|-44-22-44-6-|-4-(play 4 8 times)-|-66~~~-|
|------------|--------------------|-------|

i think the bridge isnt perfect..but the rest is good enough
Suggest correction
Give kudos to tab author, rate the tab!
1 2 3 4 5
comments
print report bad tab
6 comments total. Showing first comments. show 1 bad comment
0 reply
good fellow 135 Aug 04, 2007 01:53 PM

dont call me idiot...go cry man, its so hard for you to take or what?
simple plan has a song called me against the wolrd...

0 reply
Kallegubben 159 Dec 20, 2007 10:20 AM

It's all wrong!

guest
You may want to rate the tab now too:
select rating
Wanna post a correction for this tab? Suggest correction