Oops, an error
Loading. Please wait.

Me Against The World Tab

version 1
version 1

Whole song

16,580 views 9 this week
3 commentsread comments
1 2 3 4 5
worth learning
x 8
add to favorites
launch autoscroll
font size
0
reset
how to read this tab
guitar tuner
Autoscroll
slow
fast
+/-
esc
set tempo
stop
Help us to improve Ultimate-Guitar.com Take our survey!
×
Artist: Simple Plan
Song: Me Against the World
Album: Still Not Getting Any...
Tuning: Drop D (EBGDAD)

*I fixed this tab so that it is easier to read*

*in the intro, guitar 1 and 2 are written for timing.  In other words, the guitar one
starts after guitar 2 plays the |12/1-1|.  If you're having trouble, listen to the song
for the timing.*
*BTW, there are no ghost notes in this tab, the (x8) mean play note(s) 8 times.  Most of
you will probably know this, just making sure there's no confusion.
*The words under some riffs indicate the lyrics at that point.
*This looks really complicated, but it's not too hard.

Intro(one person can play both guitar parts if needed, since they're not simultaneous,
it's just easier to play on 2 guitars):
Guitar 1
          |**   
E|--------|-----------------------------------|
B|--------|-----------------------------------|
G|--------|-----------------------------------|
D|--------|-11-13-13-13-13---11-13-13-13-13---|
A|--------|-11-13-13-13-13---11-13-13-13-13---|
D|--------|-11-13-13-13-13---11-13-13-13-13---|

Guitar 2
     X1   |**
E|--------|-----------------------------------|
B|--------|-----------------------------------|
G|--------|-----------------------------------|
D|-12/1-1-|----------------1------------------|
A|-12/1-1-|----------------1------------------|
D|-12/1-1-|----------------1------------------|

Guitar 1(cont'd)
E|---------------------------------------|
B|---------------------------------------|
G|---------------------------------------|
D|---11-13-13-13-13---11-15-13-13-13-----|
A|---11-13-13-13-13---11-15-13-13-13-----|
D|---11-13-13-13-13---11-15-13-13-13-----|

Guitar 2(cont'd)
E|---------------------------------------|
B|---------------------------------------|
G|---------------------------------------|
D|-4----------------6-------------12/1-1-|
A|-4----------------6-------------12/1-1-|
D|-4----------------6-------------12/1-1-|

Repeat intro from **

Verse 1:
Guitar 2
E|-----|
B|-----|
G|-----|
D|-1~~~|
A|-1~~~|
D|-1~~~|
  not

Guitar 1
E|---------|
B|-------7-|
G|---------|
D|-4-6-8---| x2
A|---------|
D|---------|
*hit the 4s on "taking" and "everyone's"*

Pre-Chorus:
Guitar 1
E|----------------------------------------|
B|----------------------------------------|
G|----------------------------------------|
D|--------11-13-13-13-13---11-13-13-13-13-|
A|--------11-13-13-13-13---11-13-13-13-13-|
D|--------11-13-13-13-13---11-13-13-13-13-|

Guitar 2
E|----------------------------------------|
B|----------------------------------------|
G|----------------------------------------|
D|-12/1-1----------------1----------------|
A|-12/1-1----------------1----------------|
D|-12/1-1----------------1----------------|
  place                 run

Guitar 1(cont'd)
E|-----------------------------------|
B|-----------------------------------|
G|-----------------------------------|
D|---11-15-13-13-13---11-15-13-13-13-|
A|---11-15-13-13-13---11-15-13-13-13-|
D|---11-15-13-13-13---11-15-13-13-13-|

Guitar 2(cont'd)
E|-----------------------------------|
B|-----------------------------------|
G|-----------------------------------|
D|-4----------------6----------------|
A|-4----------------6----------------|
D|-4----------------6----------------|
  fall             all

Chorus 1:
Guitars 1 and 2
E|------------------------------|
B|------------------------------|
G|------------------------------|
D|-1--1--1-1-1-1--9--9--9-9-9-9-|
A|-1--1--1-1-1-1--9--9--9-9-9-9-|
D|-1--1--1-1-1-1--9--9--9-9-9-9-|

E|--------------------------------------|
B|--------------------------------------|
G|--------------------------------------|
D|-4--4--4-4-4-11--11-11-11-11-11-11-11-|  x2
A|-4--4--4-4-4-11--11-11-11-11-11-11-11-|
D|-4--4--4-4-4-11--11-11-11-11-11-11-11-|

Chorus 2:
Guitar 2:
E|----------------------------|
B|----------------------------|
G|----------------------------|
D|-13-13-13-13-13-13-13-13-11-|
A|-13-13-13-13-13-13-13-13-11-|
D|-13-13-13-13-13-13-13-13-11-|

*not sure on Guitar 1 part here*

Fill 1:
Guitar 1
          |**   
E|--------|-----------------------------------|
B|--------|-----------------------------------|
G|--------|-----------------------------------|
D|--------|-11-13-13-13-13---11-13-13-13-13---|
A|--------|-11-13-13-13-13---11-13-13-13-13---|
D|--------|-11-13-13-13-13---11-13-13-13-13---|

Guitar 2
     X1   |**
E|--------|-----------------------------------|
B|--------|-----------------------------------|
G|--------|-----------------------------------|
D|-12/1-1-|----------------1------------------|
A|-12/1-1-|----------------1------------------|
D|-12/1-1-|----------------1------------------|

Guitar 1(cont'd)
E|---------------------------------------|
B|---------------------------------------|
G|---------------------------------------|
D|---11-13-13-13-13---11-15-13-13-13-----|
A|---11-13-13-13-13---11-15-13-13-13-----|
D|---11-13-13-13-13---11-15-13-13-13-----|

Guitar 2(cont'd)
E|---------------------------------------|
B|---------------------------------------|
G|---------------------------------------|
D|-4----------------6-------------12/1-1-|
A|-4----------------6-------------12/1-1-|
D|-4----------------6-------------12/1-1-|

Repeat fill from **

Fill 2:
Guitar 1 can play this instead of repeating the normal fill:
E|--------------|
B|-10~7~9~6~3~0~|
G|--------------|
D|--------------|
A|--------------|
E|--------------|

Verse 2:
Guitar 2(palm muted)
E|--------------------------|
B|--------------------------|
G|--------------------------|
D|-1-----9-----4-----11-----| x2
A|-1(x8)-9(x8)-4(x8)-11(x8)-|
D|-1-----9-----4-----11-----|
   
Guitar 1
same as verse 1

Chorus 1:
Guitars 1 and 2
E|------------------------------|
B|------------------------------|
G|------------------------------|
D|-1--1--1-1-1-1--9--9--9-9-9-9-|
A|-1--1--1-1-1-1--9--9--9-9-9-9-|
D|-1--1--1-1-1-1--9--9--9-9-9-9-|

E|--------------------------------------|
B|--------------------------------------|
G|--------------------------------------|
D|-4--4--4-4-4-11--11-11-11-11-11-11-11-|  x2
A|-4--4--4-4-4-11--11-11-11-11-11-11-11-|
D|-4--4--4-4-4-11--11-11-11-11-11-11-11-|

Chorus 3
Guitar 2:
E|------------------|
B|------------------|
G|------------------|
D|-13-------13~~11~~|
A|-13-(x16)-13~~11~~|
D|-13-------13~~11~~|

Pre-Bridge:
E|----------------------------------------|
B|----------------------------------------|
G|----------------------------------------|
D|----------------------------------------|
A|----------------------------------------|
D|-1(just strum w/palm mute until bridge)-|

Bridge:
Guitar 1 With Whammy Bar (listen for timing)
E|-------|
B|-6~5~0~|
G|-------|
D|-------|
A|-------|
E|-------|

Guitar 2
E|------------------------------------------------|
B|------------------------------------------------|
G|------------------------------------------------|
D|-4------6------13-13-11-13-13-11-13-13-11-13-13-|x2
A|-4-(x8)-6-(x8)-13-13-11-13-13-11-13-13-11-13-13-|
D|-4------6------13-13-11-13-13-11-13-13-11-13-13-|
            (not sure on these notes, but they sound good)

E|----------------------------------|
B|----------------------------------|
G|----------------------------------|
D|-4------6------9------11-------11-|
A|-4-(x8)-6-(x8)-9-(x8)-11-(x9)--11-|
D|-4------6------9------11-------11-|

Chorus 1:
Guitar 1(whammy Bar)(listen for timing):
*not 100% sure on this part*
E|----------|
B|-10~7~9~5~|
G|----------|x2
D|----------|
A|----------|
E|----------|

Guitar 2
E|------------------------------|
B|------------------------------|
G|------------------------------|
D|-1--1--1-1-1-1--9--9--9-9-9-9-|
A|-1--1--1-1-1-1--9--9--9-9-9-9-|
D|-1--1--1-1-1-1--9--9--9-9-9-9-|

E|--------------------------------------|
B|--------------------------------------|
G|--------------------------------------|
D|-4--4--4-4-4-11--11-11-11-11-11-11-11-|  x2
A|-4--4--4-4-4-11--11-11-11-11-11-11-11-|
D|-4--4--4-4-4-11--11-11-11-11-11-11-11-|

Chorus 4
E|-----------------|
B|-----------------|
G|-----------------|
D|-13------11------|
A|-13-(x8)-11-(x8)-|
D|-13------11------|

Chorus 1:
Guitar 1(whammy Bar)(listen for timing):
*not 100% sure on this part*
E|----------|
B|-10~7~9~5~|
G|----------|x2
D|----------|
A|----------|
E|----------|

Guitar 2
E|------------------------------|
B|------------------------------|
G|------------------------------|
D|-1--1--1-1-1-1--9--9--9-9-9-9-|
A|-1--1--1-1-1-1--9--9--9-9-9-9-|
D|-1--1--1-1-1-1--9--9--9-9-9-9-|

E|--------------------------------------|
B|--------------------------------------|
G|--------------------------------------|
D|-4--4--4-4-4-11--11-11-11-11-11-11-11-|  x2
A|-4--4--4-4-4-11--11-11-11-11-11-11-11-|
D|-4--4--4-4-4-11--11-11-11-11-11-11-11-|

End Riff:
E|----------------------------------|
B|----------------------------------|
G|----------------------------------|
D|-5------7------9------11------1-1-|
A|-5-(x8)-7-(x8)-9-(x8)-11-(x8)-1-1-|
D|-5------7------9------11------1-1-|
Suggest correction new What's this?
You can suggest a correction to this tab. Community and Mods will review your correction and vote to approve or reject it.
comments
print report bad tab
3 comments total. show 1 bad comment
+2 reply
Simpleplan_rulz 16 wrote on November 8 2005, 04:39 pm

hi

+4 reply
klutzy girl 52 wrote on August 11 2009, 07:42 pm

hey stupid Dark_falco (stupid name, btw) if Simple Plan sucks so much, why the heck are you looking at thier tabs

guest
You may want to rate the tab now too:
select rating
Please do not post tabs as comments. Select "correction" instead!