Oops, an error
Loading. Please wait.

Me Against The World Bass Tab

version 2
version 2

Whole song

2,325 views 1 this week
2 commentsread comments
1 2 3 4 5
excellent!
x 2
add to favorites
launch autoscroll
font size
0
reset
guitar tuner
Tab Pro tools
  • play this tab
  • loop segment
  • change instrument
  • show fretboard
  • metronome
Autoscroll
slow
fast
+/-
esc
set tempo
stop
Contributor
The other tab on here doesn't sound great, so I've uploaded my version. I think it's 
Comment and rate?

Tune each string half step down


Intro:
|-------------|
|-------------|
|-------------| 2x
|-0~-0~-3~-5~-|

Verse:
|-------------------------------------|
|-------------------------------------|
|----------33333333----------55555555-| 2x
|-00000000----------33333333----------|

Pre-Chorus:
|----------------|
|----------------|
|----------------|
|-0~-0~-3~-55-5~-|

Chorus part 1:
|-------------------------------------|
|-------------------------------------|
|----------33333333----------55555555-| 2x
|-00000000----------33333333----------|

Chorus part 2
|------------|
|------------|
|------------|
|-000000003~-|

Intro:
|-------------|
|-------------|
|-------------| 2x
|-0~-0~-3~-5~-|

Verse:
|-------------------------------------|
|-------------------------------------|
|----------33333333----------55555555-| 2x
|-00000000----------33333333----------|

Pre-Chorus:
|----------------|
|----------------|
|----------------|
|-0~-0~-3~-55-5~-|

Chorus part 1:
|-------------------------------------|
|-------------------------------------|
|----------33333333----------55555555-| 2x
|-00000000----------33333333----------|

Chorus part 3
|-----------------|
|-----------------|
|-----------------|
|-000000000000000-|

Bridge part 1:
|-----------|
|-----------|
|-5~~~-3~~~-|
|-----------|

|--------------------------|
|--------------------------|
|--------------------------|
|-000000000000000000000000-|

Bridge part 2:
|----------------------------------------|
|----------------------------------------|
|-55-33----55-77-55-33-55----------------| 2x    (Not too sure about the bridge)
|-------33----------------00-000-000-000-|

Bridge part 3:
|----------------------------|
|----------------------------|
|-55-33----55----55-33-55----|
|-------33----00----------00-|

|------------|--------------------|
|------------|--------------------|
|-55-33-55---|5555555555555555----|
|----------0-|--------------------|

Chorus part 1:
|-------------------------------------|
|-------------------------------------|
|----------33333333----------55555555-| 2x
|-00000000----------33333333----------|

chorus part 4:
|-------------------------|
|-------------------------|
|-55-33----55----55-33-55-|
|-------33----00----------| (not too sure)

Chorus part 1:
|-------------------------------------|
|-------------------------------------|
|----------33333333----------55555555-| 2x
|-00000000----------33333333----------|

chorus part 5:
|----------------------------|
|----------------------------|
|-55-33----55----55-33-55----| (not too sure)
|-------33----00----------00-|

|------------|----------|-------|
|------------|----------|-------|
|-55-33-55---|-55555555-|-------|
|----------0-|----------|-00~~~-|
comments
We did not receive enough feedback on this tab! Please rate:
print report bad tab
1 2 3 4 5
2 comments total.
0 reply
Hanne BC wrote on February 8 2010, 04:13 pm

hey, the verse is exactly like the over my head chorus :D

0 reply
awahorseman wrote on February 17 2014, 11:27 am

this is a great tab

I want to post or [tab]
guest
You may want to rate the tab now too:
select rating
Please do not post tabs as comments. Select "correction" instead!