Oops, an error
Loading. Please wait.

Me Against The World Tab

version 2
version 2

Whole song

21,738 views 18 this week
8 commentsread comments
1 2 3 4 5
accurate
x 23
add to favorites
launch autoscroll
font size
0
reset
how to read this tab
guitar tuner
Autoscroll
slow
fast
+/-
esc
set tempo
stop
Help us to improve Ultimate-Guitar.com Take our survey!
×
Contributor
Hey, this is only my 2nd tab so go easy lol. I heard this song yesterday and i just had
to tab it so here it is. I'm not sure about everything but it doesnt sound bad 2 me.
Theres some lead parts missing but i cant quite pick them out so if u kno u can post
them. Enjoy :)

Tabbed by: InTheEnd88
Song: Me Against The World
Artist: Simple Plan
Tuning: GTR1: DADGBE    GTR2: DADGBE

INTRO:

E|---------------------------------------------------|
B|---------------------------------------------------|
G|------6-8-8-8-----6-8-8-8-----6-8-8-8-----8\11-8-8-|
D|--/1-----------1-----------4-----------6-----------| x2
A|--/1--4-6-6-6--1--4-6-6-6--4--4-6-6-6--6--6\9--6-6-|
D|--/1-----------1-----------4-----------6-----------|


VERSE:

E|--------|
B|--------|
G|--------|
D|----3-4-|
A|--1-----|
D|--------|


PRE-CHORUS:

E|--------------------------------------------|
B|--------------------------------------------|
G|-----6-8-8-8-----6-8-8-8-----8-11-8-8-8-8-8-|
D|--1-----------4-----------6-----------------|
A|--1--4-6-6-6--4--4-6-6-6--6--6-9--6-6-6-6-6-|
D|--1-----------4-----------6-----------------|

CHORUS:

E|--------------------------------------------|------------|
B|--------------------------------------------|------------|
G|--------------------------------------------|------------|
D|--1-1-1-1--9-9-9-9--4-4-4-4--11-11-11-11----|-1-1-1-1-4~-| end with this
A|--1-1-1-1--9-9-9-9--4-4-4-4--11-11-11-11-x2-|-1-1-1-1-4~-| on 2nd time
D|--1-1-1-1--9-9-9-9--4-4-4-4--11-11-11-11----|-1-1-1-1-4~-|

GUITAR 1 - INTRO x2

GUITAR 2 (FILL):

E|-----------------------|
B|--10b-7b-9b--6b-7b-4b--|
G|--12b-9b-11b-8b-9b-6b--|
D|-----------------------|
A|-----------------------|
D|-----------------------|

VERSE (GUITAR 1):

E|--------|
B|--------|
G|--------|
D|----3-4-|
A|--1-----|
D|--------|

GUITAR 2: 

E|-----------------------------------------|
B|-----------------------------------------|
G|-----------------------------------------|
D|--1-1-1-1--9-9-9-9--4-4-4-4--11-11-11-11-| x2
A|--1-1-1-1--9-9-9-9--4-4-4-4--11-11-11-11-|
D|--1-1-1-1--9-9-9-9--4-4-4-4--11-11-11-11-|
    ............pm.........................

PRE-CHORUS:

E|--------------------------------------------|
B|--------------------------------------------|
G|-----6-8-8-8-----6-8-8-8-----8-11-8-8-8-8-8-|
D|--1-----------4-----------6-----------------|
A|--1--4-6-6-6--4--4-6-6-6--6--6-9--6-6-6-6-6-|
D|--1-----------4-----------6-----------------|

CHORUS:

E|--------------------------------------------|---------------------|
B|--------------------------------------------|---------------------|
G|--------------------------------------------|---------------------|
D|--1-1-1-1--9-9-9-9--4-4-4-4--11-11-11-11----|-13-13-13--11-11-11~-|
A|--1-1-1-1--9-9-9-9--4-4-4-4--11-11-11-11-x2-|-13-13-13--11-11-11~-| 
D|--1-1-1-1--9-9-9-9--4-4-4-4--11-11-11-11----|-13-13-13--11-11-11~-|

PRE-BRIDGE:

E|----------------------------------|
B|----------------------------------|
G|----------------------------------|
D|-1--------------------------------|
A|-1-(PM and build into the bridge)-|
D|-1--------------------------------|

BRIDGE:

E|------------------------------------|
B|--------------------------6b-5b-3b--| (lead guitar plays the fill)
G|--------------------------8b-7b-5b--|
D|-4-4-4-4-4-4-6-6-6-6-6-6------------|
A|-4-4-4-4-4-4-6-6-6-6-6-6------------|
D|-4-4-4-4-4-4-6-6-6-6-6-6------------|
   \                    /
    RYTHM GTR PLAYS THIS
                                                            (GTR 2)
E|-------------------------------------------------------|------------|
B|-------------------------------------------------------|---11b-11b--|
G|-------------------------------------------------------|---13b-13b--|
D|-4-4-4-4-4-4-6-6-6-6-6-6-9-9-9-9-9-9-11-11-11-11-11-11-|------------|
A|-4-4-4-4-4-4-6-6-6-6-6-6-9-9-9-9-9-9-11-11-11-11-11-11-|------------|
D|-4-4-4-4-4-4-6-6-6-6-6-6-9-9-9-9-9-9-11-11-11-11-11-11-|------------|
                                                       (keep bending note   
                                                        until chorus)  

CHORUS (GTR 1):

E|--------------------------------------------|------------|
B|--------------------------------------------|------------|
G|--------------------------------------------|------------|
D|--1-1-1-1--9-9-9-9--4-4-4-4--11-11-11-11----|-4-4-4-6-6-6|end with this 
A|--1-1-1-1--9-9-9-9--4-4-4-4--11-11-11-11-x2-|-4-4-4-6-6-6|on 2nd time
D|--1-1-1-1--9-9-9-9--4-4-4-4--11-11-11-11----|-4-4-4-6-6-6|

(GTR 2):

E|-----------------------|
B|--10b-7b-9b--6b-7b-4b--|
G|--12b-9b-11b-8b-9b-6b--| (PLAY THROUGHOUT THE CHORUS)
D|-----------------------|
A|-----------------------|
D|-----------------------|


E|--------------------------------------------|
B|--------------------------------------------|
G|--------------------------------------------|
D|--1-1-1-1--9-9-9-9--4-4-4-4--11-11-11-11----|
A|--1-1-1-1--9-9-9-9--4-4-4-4--11-11-11-11-x2-|
D|--1-1-1-1--9-9-9-9--4-4-4-4--11-11-11-11----|

E|------------------------------------------------------|------------|
B|------------------------------------------------------|---11b-11b--| 
G|------------------------------------------------------|---13b-13b--|
D|-5-5-5-5-5--7-7-7-7-7--9-9-9-9-9--11-11-11-11-11--1-1-|------------|
A|-5-5-5-5-5--7-7-7-7-7--9-9-9-9-9--11-11-11-11-11--1-1-|------------|
D|-5-5-5-5-5--7-7-7-7-7--9-9-9-9-9--11-11-11-11-11--1-1-|------------|


           And thats it, any comments just post
Suggest correction new What's this?
You can suggest a correction to this tab. Community and Mods will review your correction and vote to approve or reject it.
comments
print report bad tab
8 comments total. Showing first comments.
0 reply
youth_gone_wild 11 wrote on June 11 2007, 06:27 pm

I love this song! i'm glad someone has made tabs for this song or else it would have taken me forever to figure out!

0 reply
Marx79 17 wrote on July 12 2007, 10:47 am

Good tab ,but I think it´s in standart tuning...

0 reply
ritalinkid 141 wrote on October 18 2007, 10:19 pm

Nope. It's in drop D...
great tab :D

guest
You may want to rate the tab now too:
select rating
Please do not post tabs as comments. Select "correction" instead!