Oops, an error
Loading. Please wait.

Me Against The World Tab

version 3
version 3

Whole song

2,354 views 3 this week
2 commentsread comments
1 2 3 4 5
accurate
x 3
add to favorites
launch autoscroll
font size
0
reset
how to read this tab
guitar tuner
Autoscroll
slow
fast
+/-
esc
set tempo
stop
Help us to improve Ultimate-Guitar.com Take our survey!
×
Contributor
Difficulty
intermediate
-------------------------------------------------------------------------------
                   ME AGAINST THE WORLD - SIMPLE PLAN
-------------------------------------------------------------------------------
Tabbed by:Devin Young
Email:jpageZeppelin468@aim.com

Tuning: tune 1/2 step down (Eb,Ab,Db,Gb,Bb,eb)

INTRO: gtr 1 and gtr 2 dist. play 2x

eb|------------------------------------------------------------------------|
Bb|------------------------------------------------------------------------|
Gb|--------7/9-9-9-9------7/9-9-9-9---5---7/9-9-9-9---7---9/12\9-9---------|
Db|-\\-2---x-x-x-x-x--2---x-x-x-x-x---5---x-x-x-x-x---7---x--x-x-x---------|
Ab|-\\-2---5/7-7-7-7--2---5/7-7-7-7---3---5/7-7-7-7---5---7/10\7-7---------|
Eb|-\\-0--------------0---------------3---------------5--------------------|


VERSE: gtr 1 with reverb (after the first two vocal lines)

eb|------------------------------------------------------------------------|
Bb|------------------------------------------------------------------------|
Gb|--------0---------------0-----------------------------------------------|
Db|------2---------------0-------------------------------------------------|
Ab|----2---------------2---------------------------------------------------|
Eb|--0---------------3-----------------------------------------------------|


PRE-CHORUS: gtr 1 and gtr 2 dist.


eb|------------------------------------------------------------------------|
Bb|------------------------------------------------------------------------|
Gb|--5---7/9-9-9-9--5---7/9-9-9-9---7---9/12\9-9----7--7--7----------------|
Db|--5---x-x-x-x-x--5---x-x-x-x-x---7---x--x-x-x----7--7--7----------------|
Ab|--3---5/7-7-7-7--3---5/7-7-7-7---5---7/10\7-7----5--5--5----------------|
Eb|--3--------------3---------------5---------------5--5--5----------------|


CHORUS: gtr 2 dist. (i didnt put the strum patterns)


eb|------------------------------------|-----------------------------------|
Bb|------------------------------------|-----------------------------------|
Gb|------5-------7-------5-------7-----|--5------------7-------------------|
Db|--2---5---5---7---2---5---5---7-----|--5------------7-------------------|
Ab|--2---3---5---5---2---3---5---5-----|--3------------5-------------------|
Eb|--0---3---3---5---0---3---3---5-----|--3------------5-------------------|


gtr 1 dist. (no strum patterns)
eb|--7---3---3---5---7---3---3---5-----|--3-----3------2-------------------|
Bb|--5---1---3---3---5---1---3---3-----|----3-----3----3-------------------|
Gb|------------------------------------|------0-----0----------------------|
Db|------------------------------------|-----------------------------------|
Ab|------------------------------------|-----------------------------------|
Eb|------------------------------------|-----------------------------------|


AFTER CHORUS A: gtr 1 and gtr 2 dist. play 2x


eb|------------------------------------------------------------------------|
Bb|------------------------------------------------------------------------|
Gb|--------7/9-9-9-9------7/9-9-9-9---5---7/9-9-9-9---7---9/12\9-9---------|
Db|-\\-2---x-x-x-x-x--2---x-x-x-x-x---5---x-x-x-x-x---7---x--x-x-x---------|
Ab|-\\-2---5/7-7-7-7--2---5/7-7-7-7---3---5/7-7-7-7---5---7/10\7-7---------|
Eb|-\\-0--------------0---------------3---------------5--------------------|


FILL: gtr 1 dist. with wah pedal (played during 2nd AFTER CHORUS)

eb|------------------------------------------------------------------------|
Bb|--12-----8-----10-----8-7-5---------------------------------------------|
Gb|------------------------------------------------------------------------|
Db|------------------------------------------------------------------------|
Ab|------------------------------------------------------------------------|
Eb|------------------------------------------------------------------------|


VERSE: gtr 2 dist. palm muted


eb|-----------------------------------------------------------------------|
Bb|-----------------------------------------------------------------------|
Gb|------5-------7-------5-------7----------------------------------------|
Db|--2---5---5---7---2---5---5---7----------------------------------------|
Ab|--2---3---5---5---2---3---5---5----------------------------------------|
Eb|--0-------3-------0-------3--------------------------------------------|


gtr 1 with reverb (after the first two vocal lines)
eb|------------------------------------------------------------------------|
Bb|------------------------------------------------------------------------|
Gb|--------0---------------0-----------------------------------------------|
Db|------2---------------0-------------------------------------------------|
Ab|----2---------------2---------------------------------------------------|
Eb|--0---------------3-----------------------------------------------------|


PRE-CHORUS: gtr 1 and gtr 2 dist.


eb|------------------------------------------------------------------------|
Bb|------------------------------------------------------------------------|
Gb|--5---7/9-9-9-9--5---7/9-9-9-9---7---9/12\9-9----7--7--7----------------|
Db|--5---x-x-x-x-x--5---x-x-x-x-x---7---x--x-x-x----7--7--7----------------|
Ab|--3---5/7-7-7-7--3---5/7-7-7-7---5---7/10\7-7----5--5--5----------------|
Eb|--3--------------3---------------5---------------5--5--5----------------|


CHORUS: gtr 2 dist. (i didnt put the strum patterns)


eb|------------------------------------|-----------------------------------|
Bb|------------------------------------|-----------------------------------|
Gb|------5-------7-------5-------7-----|--5------------7-------------------|
Db|--2---5---5---7---2---5---5---7-----|--5------------7-------------------|
Ab|--2---3---5---5---2---3---5---5-----|--3------------5-------------------|
Eb|--0---3---3---5---0---3---3---5-----|--3------------5-------------------|


gtr 1 dist. (no strum patterns)
eb|--7---3---3---5---7---3---3---5-----|--3-----3------2-------------------|
Bb|--5---1---3---3---5---1---3---3-----|----3-----3----3-------------------|
Gb|------------------------------------|------0-----0----------------------|
Db|------------------------------------|-----------------------------------|
Ab|------------------------------------|-----------------------------------|
Eb|------------------------------------|-----------------------------------|


AFTER CHORUS B: gtr 1 and gtr 2 slightly dist. 


eb|--0---------------------------------------------------------------------|
Bb|--1-------3^------------------------------------------------------------|
Gb|--0-------2^------------------------------------------------------------|
Db|--2-------0^----------2-------------------------------------------------|
Ab|--3-------------------2-------------------------------------------------|
Eb|----------------------0-------------------------------------------------|


BRIDGE A: gtr 1 and gtr 2(no strum patterns) 


eb|------------------------------------------------------------------------|
Bb|------------------------------------------------------------------------|
Gb|--5---7--*---5---7--*---5---7---5---7-----------------------------------|
Db|--5---7--*---5---7--*---5---7---5---7-----------------------------------|
Ab|--3---5--*---3---5--*---3---5---3---5-----------------------------------|
Eb|--3---5--*---3---5--*---3---5---3---5-----------------------------------|

FILL:wherever there is a*this filled is played by gtr 1 dist.with wah pedal
eb|------------------------------------------------------------------------|
Bb|---8-8-7-7-3-3----------------------------------------------------------|
Gb|------------------------------------------------------------------------|
Db|------------------------------------------------------------------------|
Ab|------------------------------------------------------------------------|
Eb|------------------------------------------------------------------------|


CHORUS: gtr 2 dist. (i didnt put the strum patterns) play 2x


eb|------------------------------------|-----------------------------------|
Bb|------------------------------------|-----------------------------------|
Gb|------5-------7-------5-------7-----|--5------------7-------------------|
Db|--2---5---5---7---2---5---5---7-----|--5------------7-------------------|
Ab|--2---3---5---5---2---3---5---5-----|--3------------5-------------------|
Eb|--0---3---3---5---0---3---3---5-----|--3------------5-------------------|


gtr 1 dist. (no strum patterns) play 2x
eb|--7---3---3---5---7---3---3---5-----|--3-----3------2-------------------|
Bb|--5---1---3---3---5---1---3---3-----|----3-----3----3-------------------|
Gb|------------------------------------|------0-----0----------------------|
Db|------------------------------------|-----------------------------------|
Ab|------------------------------------|-----------------------------------|
Eb|------------------------------------|-----------------------------------|


OUTRO: gtr 1 and gtr 2
eb|------------------------------------------------------------------------|
Bb|------------------------------------------------------------------------|
Gb|--5-----7-----5-----7---------------------------------------------------|
Db|--5-----7-----5-----7-----2-2-------------------------------------------|
Ab|--3-----5-----3-----5-----2-2-------------------------------------------|
Eb|--3-----5-----3-----5-----0-0-------------------------------------------|


| /  slide up
| \  slide down
| h  hammer-on
| p  pull-off
| ~  vibrato
| +  harmonic
| x  Mute note
| ^  use wammy bar
===============================================================================
comments
We did not receive enough feedback on this tab! Please rate:
print report bad tab
1 2 3 4 5
2 comments total.
0 reply
ZEiNDEiN 223 wrote on December 14 2005, 10:11 pm

sucky tab frm a sucky band.. tabs for kids.. this band is for small children..

0 reply
mcr_01_fan 1,127 wrote on February 19 2006, 05:56 pm

So woulden't that make you a kid and a small child as you're lookin at Simple Plans tabs?

I want to post or [tab]
guest
You may want to rate the tab now too:
select rating
Please do not post tabs as comments. Select "correction" instead!