Oops, an error
Loading. Please wait.

Meet You There Tab

version 1
version 1

Solo

Whole song

Interactive

1,352 views 1 this week
3 commentsread comments
1 2 3 4 5
please rate
add to favorites
launch autoscroll
font size
0
reset
how to read this tab
guitar tuner
Autoscroll
slow
fast
+/-
esc
set tempo
stop
Help us to improve Ultimate-Guitar.com Take our survey!
×
Author
Simple Plan
Meet You There Solo

Yet another good song by SP.  This is just the solo though.
I'm pretty sure it's right. 
There are two guitars in the solo obviously.
1st guitar

E|---------------------------
B|---------------------------
G|---------------------------
D|-4-4-6-6-9-9-4-4-x-x-x-x--- -keep playing that until end
A|-4-4-6-6-9-9-4-4-x-x-x-x---   of solo
E|-2-2-4-4-7-7-2-2-x-x-x-x---

Second Guitar

E|-14-14-9-9-14-14-9-9-14-14-9-
B|-----------------------------
G|-----------------------------  -play that after the     D|-----------------------------  first guitar plays his riff
A|-----------------------------  4 times.  Play this part
E|----------------------------- 4 times.

That's pretty much it.  Pretty straight forward, and it sounds sweet together with a bum 
load of distortion. Keep tabs coming. Later.
beefy_101@hotmail.com
Suggest correction
Give kudos to tab author, rate the tab!
1 2 3 4 5
comments
print report bad tab
3 comments total.
0 reply
lostprophet94 90 wrote on April 13 2002, 12:00 am

COOL!1
sounds right =)

0 reply
Clatus 10 wrote on May 13 2002, 12:00 am

you must be deaf.. get a hearing aid

0 reply
ritalinkid 92 wrote on October 18 2007, 10:34 pm

This part should be like this

-------------------------
-------------------------
-------------------------
-22-66-77-44-xxxx--------
-22-66-77-44-xxxx--------
-00-44-99-22-xxxx--------

Other than that, great job! :D

guest
You may want to rate the tab now too:
select rating
Please do not post tabs as comments. Select "correction" instead!