Oops, an error
Loading. Please wait.

My Alien Tab

version 1
version 1

Intro

Whole song

Interactive

1,780 views 1 this week
3 commentsread comments
1 2 3 4 5
accurate
x 4
add to favorites
launch autoscroll
font size
0
reset
how to read this tab
guitar tuner
Tab Pro tools
  • play this tab
  • loop segment
  • change instrument
  • show fretboard
  • metronome
×
Best way to learn
"My Alien"
Autoscroll
slow
fast
+/-
esc
set tempo
stop
Contributor
Here's the intro, it's good enough to get you started...
Tabbed By: Justin Zoltek of Plan 2
Simple Plan : My Alien

---------|---------|-----------------|
---------|---------|-6-7-9---6\4-6\4-|
---2-1-2-|---2-1-2-|-------6---------|
--2-2-2-2|--2-2-2-2|-----------------|
-0-------|-0-------|-----------------|
---------|---------|-----------------|

This is the tab for the original version of the song, so take it easy on the 
comments i know it's pretty crappy.
comments
print report bad tab
3 comments total.
0 reply
hoppusrlz wrote on October 10 2002, 12:00 am

Hey, bud
next time u tab a song, tab the whole song not just the intro u fukin dumass

0 reply
LesPaul86 wrote on December 23 2002, 12:00 am

Here is the introduction to My Alien by Simple Plan. It is a good song and I think this intro is right. Listen to the song while you play and I guarantee you will pick it up in 15 minutes. All questions, comments, feedback, email to PizmoBeach@aol.com


Intro.
e --------------------------------------------------
B --------------------------------------------------
G --------------------------------------------------
D -------7---6---7------------7---6---7---------
A ----7---7---7---7--------7---7---7---7-------
E --5----------------------5-----------------------

Pre-Verse (No guitar in the verse, just bass)
e---------------------------------------------------------------------------------
B--------------------------------------------------------------------------------
G----5-5-5-5-5-5-5-5-5-5-5-6-6-8-8--------------------------5-3-5-3-
D----5-5-5-5-5-5-5-5-5-5-5-6-6-8-8--6-6-6-6-6-6-6-6----5-3-5-3-
A----3-3-3-3-3-3-3-3-3-3-3-4-4-6-6--6-6-6-6-6-6-6-6----3-1-3-1-
E---------------------------------------------4-4-4-4-4-4-4-4---------------


Chorus.
e--------------------------------
B-------------------------------
G--------6---8---6------------ Strum accordingly.
D----6---6---8---6-----------
A----6---4---6---4-----------
E----4--------------------------

Instrumental Guitar Part *PALM MUTED*

e --------------------------------------------------
B --------------------------------------------------
G -------------------------------------------------- Play a few times.
D -------7---6---7------------7---6---7---------
A ----7---7---7---7--------7---7---7---7-------
E --5----------------------5-----------------------

And the rest of the song is just a repeat!
Have fun!

0 reply
CheezeBiskit wrote on April 6 2004, 12:00 am

Ok... I got an other way to play the Intro because yous is too low in tune. Here's how i play it.

Intro
e|-------------------------------------------------------------------|
B|-------------------------------------------------------------------|
G|-------------------------------------------------------------------|
D|-----7---6---7--------7---6---7------6-7---6---7-----6-7---6---6-7-|
A|---7---7---7---7----7---7---7---7--5-----5---5---5-7-----7---7-----|
E|-5----------------5------------------------------------------------|
PM . . . . . . . . . . . . . . . . . . . . . . . . . . . . . . . .

I want to post or [tab]
guest
You may want to rate the tab now too:
select rating
Please do not post tabs as comments. Select "correction" instead!