Oops, an error
Loading. Please wait.

My Christmas List Tab

version 1
version 1

Intro

Whole song

4,640 views 1 this week
3 commentsread comments
1 2 3 4 5
x 12
add to favorites
launch autoscroll
font size
0
reset
how to read this tab
guitar tuner
×
Best way to learn
"My Christmas List"
Autoscroll
slow
fast
+/-
esc
set tempo
stop
There isnt a tab for this anywhere well not a decent one, so i did the intro it took me
about 30 seconds to figure out so it aint hard, someone figure the rest of the song this has
gotta be some inspiration, Cheers
any comments mail me thefourthhardy@hotmail.com

e: --1---1---4---4---2--4---1-------------
b:-----2---2---2---2-----------2----------
g:----------------------------------------
d:----------------------------------------
a:----------------------------------------
e:----------------------------------------

Thats it
Suggest correction
comments
print report bad tab
3 comments total.
0 reply
radiomusic 10 Apr 19, 2003 08:00 PM

very good, good job:) and 30 secs? thats darn fast

0 reply
four12enemy 10 May 22, 2007 01:05 PM

wrong

+1 reply
dudester410 123 Sep 20, 2007 07:16 PM

e: --1---1---4---4---2--4---1-------------
b:-----2---2---2---2-----------2----------
g:----------------------------------------
d:----------------------------------------
a:----------------------------------------
e:----------------------------------------
is wrong, its all correct but the last 2 on the b string instead its
e: --1---1---4---4---2--4---1--2----------
b:-----2---2---2---2----------------------
g:----------------------------------------
d:----------------------------------------
a:----------------------------------------
e:----------------------------------------

guest
You may want to rate the tab now too:
select rating
Wanna post a correction for this tab? Suggest correction