Oops, an error
Loading. Please wait.

My Christmas List Tab

version 1
version 1

Whole song

7,225 views 3 this week
1 commentread comment
1 2 3 4 5
accurate
x 3
add to favorites
launch autoscroll
font size
0
reset
how to read this tab
guitar tuner
Autoscroll
slow
fast
+/-
esc
set tempo
stop
Help us to improve Ultimate-Guitar.com Take our survey!
×
If you have any questions email me at Ultraskateoccifer6900@hotmail.com

x = ghost note
* = palm mute
~ = let ring
 
Guitar 1                             
e|---1---1---4---4---2---4-----      
B|-----2---2---2---2---2---2---              
G|-----------------------------              
D|-----------------------------                       
A|-----------------------------              
E|-----------------------------              

and then....

Guitar 1
e|1---1---1---1---4---4---2--4-
B|--2---2---2---2---2---2------
G|----------------------------- 2x
D|-----------------------------
A|-----------------------------
E|-----------------------------

and then...

Guitar 1
e|1---1---1---1---4---4-----2-2---4-4-
B|--2---2---2---2---2---2---2-2---2-2-
G|------------------------------------ 
D|------------------------------------
A|------------------------------------
E|------------------------------------

Guitar 2(at the ending of the last time the intro is played)
e|-----------------------------------
B|-----------------------------------
G|-----------------------------------
D|-----------------------------------
A|---4-4-x-6-6-----------------------
E|---2-2-x-4-4-----------------------

then the first guitar changes to this...(this is when the 2nd guitar joins)

Guitar 1
e|1---1---4---4---2---4---1---2---
B|--2---2---2---2---2---2---2---2-
G|-------------------------------- 2x   
D|--------------------------------
A|--------------------------------
E|--------------------------------

(on the 2nd time do this)

Guitar 1
e|1---1---4---4---2--4--9-----1------
B|--2---2---2---2----------7---------
G|-----------------------------------
D|-----------------------------------
A|-----------------------------------
E|-----------------------------------

Guitar 2

e|-----------------------------------
B|-----------------------------------
G|-----------------------------------
D|--6-6--x--6-6--x------------------- 2x
A|--4-4--x--4-4--x--4-4-4-4--6-6-6-6-
E|---------------x--2-2-2-2--4-4-4-4-

Guitar 2 (ends like this before singing)
e|------------------4-4-4-4-4-4------
B|------------------2-2-2-2-2-2------
G|-----------------------------------
D|--6 ~~ -6-6 ~ ---------------------
A|--4 ~~ -4-4 ~ ---------------------
E|-----------------------------------
  
(singing starts) 

...i want a lifetime supply of........
Guitar 1
e|---------------------------------------------------
B|---------------------------------------------------
G|---------------------------------------------------
D|--6-6-6-3-3-3-4-4-4-3-3-3--6-6-6-3-3-3-4-4-4-3-3-3-
A|---------------------------------------------------
E|---------------------------------------------------

e|----------------------------------------------------
B|----------------------------------------------------
G|----------------------------------------------------
D|----------------------------------------------------
A|--3-3-3-4-4-4-6-6-6-6-6-6---3-3-3-4-4-4-6-6-6-6-6-6-
E|----------------------------------------------------

Guitar 1&2
e|--------------------------------------------------------
B|--------------------------------------------------------
G|--------------------------------------------------------
D|--------------------------------------------------------
A|-8-8-8-8---6-6-6-6---4-4-4-4-4-4-4----4-4-4-4-4-4-4-4-6-
E|-6-6-6-6---4-4-4-4---2-2-2-2-2-2-2----2-2-2-2-2-2-2-2-4--
   * * *     * * *     * * * * * *

Chorus

Guitar 2
e|-----------------------------------------------------------------------
B|-----------------------------------------------------------------------
G|-----------------------------------------------------------------------
D|-6-6-6-6--------------------6-6-6-6------------------------------------
A|-4-4-4-4--6-6-6-6--4-4-4-4--4-4-4-4--4-4-4-4--4-4-4-4--6-6-6-6-6-6-6-6-
E|----------4-4-4-4--2-2-2-2-----------2-2-2-2--1-1-1-1--4-4-4-4-4-4-4-4-

e|---------------------------------------------------------  
B|---------------------------------------------------------
G|--------------------------------------------------------- 
D|-6-6-6-6------------------6-6-6-6-----------6~~ --------- 
A|-4-4-4-4-6-6-6-6--4-4-4-4-4-4-4-4--4~ -6~~ -4~~ --------- 
E|---------4-4-4-4--2-2-2-2----------2~ -4~~ --------------

...cuz now its christmas.....

Guitar 1
e|1---1---4---4---2---4---1---2---
B|--2---2---2---2---2---2---2---2-
G|--------------------------------    
D|--------------------------------
A|--------------------------------
E|--------------------------------

e|1---1---4---4---2---4----9------
B|--2---2---2---2---2---2-----7---
G|--------------------------------    
D|--------------------------------
A|--------------------------------
E|--------------------------------

Guitar 2
e|-----------------------------------
B|-----------------------------------
G|-----------------------------------
D|--6-6--x--6-6--x------------------- 2x
A|--4-4--x--4-4--x--4-4-4-4--6-6-6-6-
E|---------------x--2-2-2-2--4-4-4-4-

...i want a girl in my bed....
Guitar 1
e|---------------------------------------------------
B|---------------------------------------------------
G|---------------------------------------------------
D|--6-6-6-3-3-3-4-4-4-3-3-3--6-6-6-3-3-3-4-4-4-3-3-3-
A|---------------------------------------------------
E|---------------------------------------------------

e|----------------------------------------------------
B|----------------------------------------------------
G|----------------------------------------------------
D|----------------------------------------------------
A|--3-3-3-4-4-4-6-6-6-6-6-6---3-3-3-4-4-4-6-6-6-6-6-6-
E|----------------------------------------------------

Guitar 1&2
e|--------------------------------------------------------
B|--------------------------------------------------------
G|--------------------------------------------------------
D|--------------------------------------------------------
A|-8-8-8-8---6-6-6-6---4-4-4-4-4-4-4----4-4-4-4-4-4-4-4-6-
E|-6-6-6-6---4-4-4-4---2-2-2-2-2-2-2----2-2-2-2-2-2-2-2-4--
   * * *     * * *     * * * * * *

Chorus

Guitar 2
e|-----------------------------------------------------------------------
B|-----------------------------------------------------------------------
G|-----------------------------------------------------------------------
D|-6-6-6-6--------------------6-6-6-6------------------------------------
A|-4-4-4-4--6-6-6-6--4-4-4-4--4-4-4-4--4-4-4-4--4-4-4-4--6-6-6-6-6-6-6-6-
E|----------4-4-4-4--2-2-2-2-----------2-2-2-2--1-1-1-1--4-4-4-4-4-4-4-4-

e|---------------------------------------------------------  
B|---------------------------------------------------------
G|--------------------------------------------------------- 
D|-6-6-6-6------------------6-6-6-6-----------6~~ --------- 
A|-4-4-4-4-6-6-6-6--4-4-4-4-4-4-4-4--4~ -6~~ -4~~ --------- 
E|---------4-4-4-4--2-2-2-2----------2~ -4~~ --------------

...cuz now its christmas.....

Guitar 1
e|1---1---4---4---2---4---1---2---
B|--2---2---2---2---2---2---2---2-
G|--------------------------------    
D|--------------------------------
A|--------------------------------
E|--------------------------------

e|1---1---4---4---2---4----9------
B|--2---2---2---2---2---2-----7---
G|--------------------------------    
D|--------------------------------
A|--------------------------------
E|--------------------------------

Guitar 2
e|-----------------------------------
B|-----------------------------------
G|-----------------------------------
D|--6-6--x--6-6--x------------------- 2x
A|--4-4--x--4-4--x--4-4-4-4--6-6-6-6-
E|---------------x--2-2-2-2--4-4-4-4-

Guitar 1&2
e|-----------------------------------
B|-----------------------------------
G|-----------------------------------
D|--6~ -------6~ --------------------
A|--4~ 4~ 6~ -4~ -4~ ----------------
E|-----2~ 4~ -----6~ ----------------

Guitar 1&2
e|------------------------------------------------------------
B|------------------------------------------------------------
G|------------------------------------------------------------
D|--6-6-6-6-6-6-6-6-------------------------------------------
A|--4-4-4-4-4-4-4-4--4-4-4-4-4-4-4-4--6-6-6-6-6-6-6-6---------
E|-------------------2-2-2-2-2-2-2-2--4-4-4-4-4-4-4-4---------

e|------------------------------------------------------------
B|------------------------------------------------------------
G|------------------------------------------------------------
D|--6-6-6-6---------------------------------------------------
A|--4-4-4-4--6-6-6-6--4~ -------------------------------------
E|-----------4-4-4-4--2~ -------------------------------------

....i want everything now.....

e|------------------------------------------------------------
B|------------------------------------------------------------
G|------------------------------------------------------------
D|------------------------------------------------------------
A|----4-4-4-4-4-4-4-4-4-4--6-6-6-6-6-6-6-6-6-6----------------
E|----2-2-2-2-2-2-2-2-2-2--4-4-4-4-4-4-4-4-4-4----------------
      * * * * * * * * * *  * * * * * * * *

Chorus

Guitar 2
e|-----------------------------------------------------------------------
B|-----------------------------------------------------------------------
G|-----------------------------------------------------------------------
D|-6-6-6-6--------------------6-6-6-6------------------------------------
A|-4-4-4-4--6-6-6-6--4-4-4-4--4-4-4-4--4-4-4-4--4-4-4-4--6-6-6-6-6-6-6-6-
E|----------4-4-4-4--2-2-2-2-----------2-2-2-2--1-1-1-1--4-4-4-4-4-4-4-4-

e|---------------------------------------------------------  
B|---------------------------------------------------------
G|--------------------------------------------------------- 
D|-6-6-6-6------------------6-6-6-6-----------6~~ --------- 
A|-4-4-4-4-6-6-6-6--4-4-4-4-4-4-4-4--4~ -6~~ -4~~ --------- 
E|---------4-4-4-4--2-2-2-2----------2~ -4~~ --------------

...cuz now its christmas.....

Guitar 1
e|1---1---4---4---2---4---1---2---
B|--2---2---2---2---2---2---2---2-
G|--------------------------------    
D|--------------------------------
A|--------------------------------
E|--------------------------------

e|1---1---4---4---2---4----9------
B|--2---2---2---2---2---2-----7---
G|--------------------------------    
D|--------------------------------
A|--------------------------------
E|--------------------------------

Guitar 2
e|-----------------------------------
B|-----------------------------------
G|-----------------------------------
D|--6-6--x--6-6--x------------------- 2x
A|--4-4--x--4-4--x--4-4-4-4--6-6-6-6-
E|---------------x--2-2-2-2--4-4-4-4-

.....i want a million gifts thats right......

Guitar 2
e|----------------------------------------
B|----------------------------------------
G|----------------------------------------
D|---------------------------------------- x2
A|----4-4-4-4-4-4-4-4----6-6-6-6-6-6-6-6--
E|----2-2-2-2-2-2-2-2----4-4-4-4-4-4-4-4--

e|----------------------------------------
B|----------------------------------------
G|----------------------------------------
D|---------------------------------------- 
A|----4-4-4-4-4-4-4-4----6~ --------------
E|----2-2-2-2-2-2-2-2----4~ --------------
      * * * * * * * *    
Guitar 1(play this at the same time as the riff above)
e|----------------------------------------
B|----------------------------------------
G|--9--11-13-14---------------------------
D|--x--x--x--x---------------------------- 
A|--7--9--11-12---------------------------
E|----------------------------------------

...cuz now its christmas.....

Guitar 1
e|1---1---4---4---2---4---1---2---
B|--2---2---2---2---2---2---2---2-
G|-------------------------------- x6   
D|--------------------------------
A|--------------------------------
E|--------------------------------

(on 6 time do this)
e|1---1---4---4---2---4----9------
B|--2---2---2---2---2---2-----7---
G|--------------------------------    
D|--------------------------------
A|--------------------------------
E|--------------------------------

Guitar 2
e|-----------------------------------
B|-----------------------------------
G|-----------------------------------
D|--6-6--x--6-6--x------------------- 2x
A|--4-4--x--4-4--x--4-4-4-4--6-6-6-6-
E|---------------x--2-2-2-2--4-4-4-4-
Suggest correction
Give kudos to tab author, rate the tab!
1 2 3 4 5
comments
print report bad tab
1 comment total.
0 reply
ritalinkid 92 wrote on October 18 2007, 10:36 pm

...twas ok

guest
You may want to rate the tab now too:
select rating
Wanna post a correction for this tab? Suggest correction