Oops, an error
Loading. Please wait.

No Love Bass Tab

version 1
version 1

Whole song

Interactive

2,918 views 1 this week
2 commentsread comments
1 2 3 4 5
2 more votes to show rating
add to favorites
launch autoscroll
font size
0
reset
guitar tuner
Autoscroll
slow
fast
+/-
esc
set tempo
stop
Help us to improve Ultimate-Guitar.com Take our survey!
×
Tune 1/2 Step Down

Intro:
Rest

G|-------------------|
D|-------------------|x3
A|-6/7-777--6/7-7779-|x3
E|-------------------|

G|----------------------------------------------|
D|----------------------------------------------|
A|-11/12-12-12-12-12-12-12-12-12-12-12-11/12\11-|
E|----------------------------------------------|

Rest Through Verse

Chorus:
G|------------------------------------------------------|
D|------------------------------------------------------|
A|-7-7-7-7---------4-4-4-4---------7~xx7~--7/11-11-11-9~|
E|---------7-7-7-7---------7-7-7-7----------------------|

G|------------------------------------|
D|------------------------------------|
A|-7-7-7-7---------4-4-4-4---------7~-|
E|---------7-7-7-7---------7-7-7-7----|

Rest Until "If these walls could talk..."
G|---------------------|
D|---------------------|
A|-7~~~~---------------|
E|------7~~~~5~~~~7~~~~|

G|--------------------|
D|--------------------|
A|-7~~~~-----------7~~|
E|------7~~~~----7----|

Chorus:
G|------------------------------------------------------|
D|------------------------------------------------------|
A|-7-7-7-7---------4-4-4-4---------7~xx7~--7/11-11-11-9~|
E|---------7-7-7-7---------7-7-7-7----------------------|

G|------------------------------------------------------|
D|------------------------------------------------------|
A|-7-7-7-7---------4-4-4-4---------7~xx7~--7/11-11-11-9~|
E|---------7-7-7-7---------7-7-7-7----------------------|


Bridge:
G|--------------------------|
D|-------2222---------------|x2
A|------------2222----------|x2
E|-3333------------0000-0h2-|

G|---------------------------------------------|
D|----------22222222---------------------------|
A|-------------------22222222------------------|
E|-33333333-------------------0000000000000000-|

G|-------------------------------------|
D|----------22222222-------------------|x3
A|-------------------22222222----------|x3
E|-33333333-------------------00000000-|

Chorus:
G|------------------------------------------------------|
D|------------------------------------------------------|
A|-7-7-7-7---------4-4-4-4---------7~xx7~--7/11-11-11-9~|
E|---------7-7-7-7---------7-7-7-7----------------------|

G|------------------------------------------------------|
D|------------------------------------------------------|
A|-7-7-7-7---------4-4-4-4---------7~xx7~--7/11-11-11-9~|
E|---------7-7-7-7---------7-7-7-7----------------------|


End:
G|-------------------------|
D|-------------------------|
A|-7~~~~~~~~~~~~~~~~~~~~~~~|
E|-------------------------|
Suggest correction
Give kudos to tab author, rate the tab!
1 2 3 4 5
comments
print report bad tab
2 comments total.
+1 reply
TommyGun91 903 Feb 07, 2009 09:32 AM

The intro and the bridge/solo sound fine, but the verse and the chorus's don't work. Try correct them, then it'll be a five star tab

0 reply
cmss 10 Apr 01, 2016 10:39 PM

yes right, it doesn't work

guest
You may want to rate the tab now too:
select rating
Wanna post a correction for this tab? Suggest correction