Oops, an error
Loading. Please wait.

No Love Tab

version 1
version 1

Whole song

Interactive

5,275 views 9 this week
no commentswrite comment
1 2 3 4 5
please rate
add to favorites
launch autoscroll
font size
0
reset
how to read this tab
guitar tuner
Tab Pro tools
  • play this tab
  • loop segment
  • change instrument
  • show fretboard
  • metronome
×
Best way to learn
"No Love"
Autoscroll
slow
fast
+/-
esc
set tempo
stop
Contributor
---------------------------
No Love     By: Simple Plan
---------------------------

Tabbed By:   RussCool
(I know, pretty lame name)

Tuning: STANDARD ( E A D G B E )


INTRO:

(Piano/Guitar1/Guitar2)

|-----------------------------|-----------------------------|
|---10----10----10----10------|---11----11----11----11------|
|------10----10----10----10---|------10----10----10----10---|
|-----------------------------|-----------------------------|
|-----------------------------|-----------------------------|
|-----------------------------|-----------------------------|

Guitar 1

|----------------------|----------------------|
|---5-6-6-6-6----------|---5-6-6-6-6-8--------|
|---X-X-X-X-X----------|---X-X-X-X-X-X--------|   X3
|---2-3-3-3-3----------|---2-3-3-3-3-5--------|
|----------------------|----------------------|
|----------------------|----------------------|

Guitar 2

|-----------------------------|-----------------------------|
|---10----10----10----10------|---11----11----11----11------|
|------10----10----10----10---|------10----10----10----10---|   X3
|-----------------------------|-----------------------------|
|-----------------------------|-----------------------------|
|-----------------------------|-----------------------------|

Guitar 1

|-----------------------------|-----------------------------|
|---10-11-11-11-11-11-11-11---|---11-11-11-11-10-11-10------|
|----X--X--X--X--X--X--X--X---|----X--X--X--X--X--X--X------|
|----7--8--8--8--8--8--8--8---|----8--8--8--8--7--8--7------|
|-----------------------------|-----------------------------|
|-----------------------------|-----------------------------|

Guitar 2

|-----------------------------|-----------------------------|
|---10----10----10----10------|---11----11----11----11------|
|------10----10----10----10---|------10----10----10----10---|
|-----------------------------|-----------------------------|
|-----------------------------|-----------------------------|
|-----------------------------|-----------------------------|

VERSE:

(Piano)

CHORUS:

Both Guitars

|----------------------|----------------------|----------------------|
|----------------------|----------------------|----------------------|
|---8-8-8-8-3-3-3-3----|---5-5-5-5-3-3-3-3----|----------------------|
|---8-8-8-8-3-3-3-3----|---5-5-5-5-3-3-3-3----|---6-6-6-6-6-6-6-6----|
|---6-6-6-6-1-1-1-1----|---3-3-3-3-1-1-1-1----|---6-6-6-6-6-6-6-6----|
|----------------------|----------------------|---4-4-4-4-4-4-4-4----|

|----------------------|----------------------|----------------------|
|----------------------|----------------------|----------------------|
|---8-8-8-8-3-3-3-3----|---5-5-5-5-3-3-3-3----|----------------------|
|---8-8-8-8-3-3-3-3----|---5-5-5-5-3-3-3-3----|---6------------------|
|---6-6-6-6-1-1-1-1----|---3-3-3-3-1-1-1-1----|---6------------------|
|----------------------|----------------------|---4------------------|

VERSE 2:

Both Guitars

|----------------------|----------------------|
|----------------------|----------------------|
|---5-5-5-5-3-3-3-3----|-----------8-8-8-8----|   X3
|---5-5-5-5-3-3-3-3----|---6-6-6-6-8-8-8-8----|
|---3-3-3-3-1-1-1-1----|---6-6-6-6-6-6-6-6----|
|----------------------|---4-4-4-4------------|

|----------------------|----------------------|
|----------------------|----------------------|
|----------------------|-----------3-3-3-3----|
|---3-3-3-3-3-3-3-3----|---6-6-6-6-3-3-3-3----|
|---3-3-3-3-3-3-3-3----|---6-6-6-6-1-1-1-1----|
|---1-1-1-1-1-1-1-1----|---4-4-4-4------------|

CHORUS 2:

(Same as first Chorus)

SOLO:

( ? )

CHORUS 3:

(Same as first Chorus)

OUTRO:

Both Guitars

|----------------------|----------------------|----------------------|
|----------------------|----------------------|----------------------|
|---8-8-8-8-3-3-3-3----|---5-5-5-5-3-3-3-3----|----------------------|
|---8-8-8-8-3-3-3-3----|---5-5-5-5-3-3-3-3----|---6------------------|
|---6-6-6-6-1-1-1-1----|---3-3-3-3-1-1-1-1----|---6------------------|
|----------------------|----------------------|---4------------------|
comments
We did not receive enough feedback on this tab! Please rate:
print report bad tab
1 2 3 4 5
I want to post or [tab]
guest
You may want to rate the tab now too:
select rating
Please do not post tabs as comments. Select "correction" instead!