Oops, an error
Loading. Please wait.

No Love Bass Tab

version 2
version 2

Whole song

Interactive

1,818 views 3 this week
1 commentread comment
1 2 3 4 5
excellent!
x 3
add to favorites
launch autoscroll
font size
0
reset
guitar tuner
Autoscroll
slow
fast
+/-
esc
set tempo
stop
Help us to improve Ultimate-Guitar.com Take our survey!
×
Contributor
Dagi 49
This is my first tab, don't be too hard to me.^^ Please comment if you find any faults.
Greetings from Germany =)

Band: Simple Plan
Album: Simple Plan (2008)
Bassist: David Desrosiers

Tuning:
Standard
G
D
A
E

h = hammer on
p = pull off
~ = let ring
. = don't let ring
/ = slide up
\ = slide down
x = palm mute

Intro (wait for piano, then...)
G|------------------------------|
D|------------------------------|
A|-5/6-6-6-6---5/6-6-6-6-8------|  3x
E|------------------------------|
then
G|---------------------------------------------|
D|---------------------------------------------|
A|-10/11-11-11-11-11-11-11-11-11-11-11-10/11\10|    <-- 11's not 1's
E|---------------------------------------------|


Verse 1 (no bass)
G|------------------R---------------------|
D|------------------E---------------------|
A|------------------S---------------------|
E|------------------T---------------------|


Chorus 1
G|------------------------------------------------|
D|-1111111----------------------------------------|
A|---------1111111-3333333-1111111----------------|
E|---------------------------------4-4-xx-4~--4-4-|

G|----------------------------------------|
D|-1-1-1----------------------------------|
A|-------1~--111111-----------------------|
E|----------------------------------------|

G|------------------------------------------------|
D|-1111111----------------------------------------|
A|---------1111111-3333333-1111111----------------|
E|---------------------------------4~~------------|


Verse 2 (wait for "and if these walls could talk...")
G|----------------------------------------|
D|----------------------------------------|
A|-3~~-------1~~-----------------6~~------|
E|---------------------4~~----------------|

G|----------------------------------------|
D|----------------------------------------|
A|----------------------------------------|
E|-1-1-1-1-1-1-1-1-4-4-4-4-4-4-4h6~-------|


Chorus 2
G|------------------------------------------------|
D|------------------------------------------------|
A|-6666666-1111111-3333333-1111111----------------|
E|---------------------------------4-4-xx-4~--4-4-|

G|----------------------------------------|
D|-1-1-1----------------------------------|
A|-------1~--111111-----------------------|
E|----------------------------------------|

G|------------------------------------------------|
D|-1111111----------------------------------------|
A|---------1111111-3333333-1111111----------------|
E|---------------------------------4-4-xx-4~--4-4-|

G|----------------------------------------|
D|-1-1-1----------------------------------|
A|-------1~--1-1-1-1----------------------|
E|----------------------------------------|


Bridge
G|----------------------------------------|
D|----------------------------------------|
A|--------1111.--333333336666.-66---------|  2x
E|-4444.----------------------------------|

G|----------------------------------------|
D|------------------------3-33333333333333|
A|---------111111113333333----------------|
E|-44444444-------------------------------|

G|----------------------------------------|
D|----------------------------------------|
A|---------666666661111111133331111-------|  2x
E|-44444444-------------------------------|

G|----------------------------------------|
D|----------------------------------------|
A|------------------11x11x11x11x1111------|
E|-4444444444444444-----------------------|


Chorus 3
G|------------------------------------------------|
D|-1111111----------------------------------------|
A|---------1111111-3333333-1111111----------------|
E|---------------------------------4-4-xx-4~--4-4-|

G|----------------------------------------|
D|-1-1-1----------------------------------|
A|-------1~--111111-----------------------|
E|----------------------------------------|

G|------------------------------------------------|
D|-1111111----------------------------------------|
A|---------1111111-3333333-1111111----------------|
E|---------------------------------4-4-xx-4~--4-4-|

G|----------------------------------------|
D|-1-1-1------------1~~~~~~~~-------------|
A|-------1~--1-1-1------------------------|
E|----------------------------------------| End


Note: It's not out of a songbook or anything like that, it's just what i think it's 
like. Have fun!
comments
We did not receive enough feedback on this tab! Please rate:
print report bad tab
1 2 3 4 5
1 comment total.
0 reply
TommyGun91 816 wrote on February 7 2009, 09:38 am

I give it 5 stars for standard tuning. But David plays it tuned half step down. (which makes the 1st fret D string open on the Eb string) Apart from that it's perfect.

I want to post or [tab]
guest
You may want to rate the tab now too:
select rating
Please do not post tabs as comments. Select "correction" instead!