Oops, an error
Loading. Please wait.

One Bass Tab

version 1
version 1

Whole song

Interactive

711 views 1 this week
no commentswrite comment
1 2 3 4 5
excellent!
x 1
add to favorites
launch autoscroll
font size
0
reset
guitar tuner
Tab Pro tools
  • play this tab
  • loop segment
  • change instrument
  • show fretboard
  • metronome
Autoscroll
slow
fast
+/-
esc
set tempo
stop
Contributor
I tabbed this out for my Still Not Getting Any album tab.
Tune each string half a step down

Intro
|----------------------------------------|
|----------------------------------------|
|-55555555-------------------------------|   X2
|----------55555555-3333333333333-5------|

Verse
|----------------------------------------|
|----------------------------------------|
|-555--555----------555--555-------------|
|----------333--333----------333--333----|

|--------------------------|
|--------------------------|
|--------------------------|
|-777---555---333-33335----|

Chorus
|----------------------------------------|
|----------------------------------------|
|-55555555-------------------------------|   X2
|----------55555555-3333333333333-5------|

Bridge

|----------------------------------------|
|----------------------------------------|
|-555--555----------555--555-------------|
|----------333--333----------333--333----|  X4

|-----------------------------|
|----9~-----7~-----5~---------|
|-----------------------------|
|-777----555----333--33335----|

Chorus
|----------------------------------------|
|----------------------------------------|
|-55555555-------------------------------|   X2
|----------55555555-3333333333333-5------|

Bridge 2

|----------------------------------------|
|----------------------------------------|
|----------------------------------------|
|-222--222-333--333-222--222-333--333----| X2

|--------------------------------------------|
|--------------------------------------------|
|--------------------------------------------|
|-7777~--5555~--33333333/1515151515151517----|   (15and 17)

Chorus
|----------------------------------------|
|----------------------------------------|
|-55555555-------------------------------|   X3
|----------55555555-3333333333333-5------|

|-----------------------------|
|-----------------------------|
|--------------------------5~~|
|-777777755555553333333335----|

Comment and rate please
comments
We did not receive enough feedback on this tab! Please rate:
print report bad tab
1 2 3 4 5
I want to post or [tab]
guest
You may want to rate the tab now too:
select rating
Please do not post tabs as comments. Select "correction" instead!