Oops, an error
Loading. Please wait.

One By One Tab

version 2
version 2

Whole song

Interactive

175 views 1 this week
no commentswrite comment
1 2 3 4 5
please rate
add to favorites
launch autoscroll
font size
0
reset
how to read this tab
guitar tuner
Autoscroll
slow
fast
+/-
esc
set tempo
stop
Help us to improve Ultimate-Guitar.com Take our survey!
×
Author
Difficulty
Tuning
intermediate
D# G# C# F# A# D#
--------------------------
 One By One ~ Simple Plan
--------------------------

Tabbed by: Russcool
(I know, pretty lame name)


INTRO

   Guitar 1
Eb|----------------------------------------------------------------|
Bb|-10--10--10--12--12--12--14--14--15--15--15--14--14--14---9---9-|
Gb|--X---X---X---X---X---X---X---X---X---X---X---X---X---X---X---X-|
Db|--7---7---7---9---9---9--11--11--12--12--12--11--11--11---6---6-|   x2
Ab|----------------------------------------------------------------|
Db|----------------------------------------------------------------|

Eb|----------------------------------------------------------------|
Bb|-10--10--10--12--12--12--14--14--15--14------15--14------15--14-|
Gb|--X---X---X---X---X---X---X---X---X---X--14---X---X--14---X---X-|
Db|--7---7---7---9---9---9--11--11--12--11---X--12--11---X--12--11-|
Ab|-----------------------------------------12----------12---------|
Db|----------------------------------------------------------------|

   Guitar 2
Eb|---------------------------------------------------------------------------1~--|
Bb|---------------------------------------------------------------------------3~--|
Gb|-------------------------------------------------------------7--7-7--7-7-7-2~--|
Db|-7--7-7--7-7-7-7-7-7-6-6-6-6-6-4--4-4--4-4-4-4-4-4-2-2-2-2-2-7--7-7--7-7-7-0~--|
Ab|-7--7-7--7-7-7-7-7-7-7-7-7-7-7-4--4-4--4-4-4-4-4-4-2-2-2-2-2-5--5-5--5-5-5-----|
Db|-7--7-7--7-7-7-7-7-7-6-6-6-6-6-4--4-4--4-4-4-4-4-4-2-2-2-2-2-------------------|


VERSE

   Guitar 3
Eb|------------------------------|
Bb|------------------------------|
Gb|------------------------------|
Db|-------2------2-----------0---|   x4
Ab|-0-2-4----4-0----4-0--0-2---4-|
Db|------------------------------|


PRE-CHORUS

   Guitar 2
Eb|-----------------------------------------------------------|
Bb|-----------------------------------------------------------|
Gb|---------------------------7-7-7-7-7-7-7-7-7-7-7-7-7-7-7-7-|
Db|-4-4-4----7--7-7-7-7-7-7-7-7-7-7-7-7-7-7-7-7-7-7-7-7-7-7-7-|
Ab|-4-4-4----7--7-7-7-7-7-7-7-5-5-5-5-5-5-5-5-5-5-5-5-5-5-5-5-|
Db|-4-4-4----7--7-7-7-7-7-7-7---------------------------------|

Eb|-----------------------------------------------------|
Bb|-----------------------------------------------------|
Gb|---------------------------7-7-7-7-7-7-7-7-9--9~-----|
Db|-4-4-4----7--7-7-7-7-7-7-7-7-7-7-7-7-7-7-7-9--9~-----|
Ab|-4-4-4----7--7-7-7-7-7-7-7-5-5-5-5-5-5-5-5-7--7~-----|
Db|-4-4-4----7--7-7-7-7-7-7-7---------------------------|

   Guitar 4
Eb|------------12--12----------------------12--12------------|
Bb|-------9-10--------10-9--10~-----9--10---------10-9--10---|
Gb|----11----------------------------------------------------|
Db|----------------------------------------------------------|
Ab|----------------------------------------------------------|
Db|----------------------------------------------------------|

Eb|------------12--12----------------------12--12~-----|
Bb|-------9-10--------10-9--10~-----9--10--12--12~-----|
Gb|----11----------------------------------------------|
Db|----------------------------------------------------|
Ab|----------------------------------------------------|
Db|----------------------------------------------------|


CHORUS

   Guitar 2
Eb|-----------2~---------------------------------|
Bb|-----------3~---------------------------------|
Gb|-2---------2~-------2--2-------7--7--7-7-7--7-|
Db|-2----2----0~-------2--2--2--2-7--7--7-7-7--7-|
Ab|-0----2----0~-------0--0--2--2-5--5--5-5-5--5-|
Db|------2----0~-------------2--2----------------|

Eb|-----------2~--------------------2--2-2-2-2-2-2-2-|
Bb|-----------3~--------------------3--3-3-3-3-3-3-3-|
Gb|-2---------2~--------------------2--2-2-2-2-2-2-2-|
Db|-2----2----0~-------4-4-4--2-2-2-0--0-0-0-0-0-0-0-|
Ab|-0----2----0~-------4-4-4--2-2-2-0--0-0-0-0-0-0-0-|
Db|------2----0~-------4-4-4--2-2-2-0--0-0-0-0-0-0-0-|

Eb|-----------------|
Bb|-----------------|
Gb|-----------------|
Db|-4-4-4-4-2-2-2-2-|
Ab|-4-4-4-4-2-2-2-2-|
Db|-4-4-4-4-2-2-2-2-|

   Guitar 4
Eb|-12------12------12-------------------12----------10----10-------10-------12----|
Bb|-----10------10------10-----10--10-12----10-12-14----14----14-10----14-10----10-|
Gb|-------------------------9------------------------------------------------------|
Db|--------------------------------------------------------------------------------|
Ab|--------------------------------------------------------------------------------|
Db|--------------------------------------------------------------------------------|

Eb|-12-------------12------------------12---------9----9----9----9----9----|
Bb|-----10-----10------10-----10--9-10----10---10---10---10---10---10---10-|
Gb|---------9--------------9-----------------9-----------------------------|
Db|------------------------------------------------------------------------|
Ab|------------------------------------------------------------------------|
Db|------------------------------------------------------------------------|

Eb|------12---------9----|
Bb|-9-10----10---10---10-|
Gb|------------9---------|
Db|----------------------|
Ab|----------------------|
Db|----------------------|


Repeat INTRO

Repeat VERSE

Repeat Pre-Chorus

Repeat CHORUS


INTERLUDE

   Guitar 2
Eb|----------------------------------------------------------------------------------------|
Bb|----------------------------------------------------------------------------------------|
Gb|-------------------------------------------------------------7--7-7--7-7-7-7--7-7--7-7-7|
Db|-7--7-7--7-7-7-7-7-7-6-6-6-6-6-4--4-4--4-4-4-4-4-4-2-2-2-2-2-7--7-7--7-7-7-7--7-7--7-7-7|
Ab|-7--7-7--7-7-7-7-7-7-7-7-7-7-7-4--4-4--4-4-4-4-4-4-2-2-2-2-2-5--5-5--5-5-5-5--5-5--5-5-5|
Db|-7--7-7--7-7-7-7-7-7-6-6-6-6-6-4--4-4--4-4-4-4-4-4-2-2-2-2-2----------------------------|

Eb|--------------------------------|
Bb|--------------------------------|
Gb|---------------9--9-9-9-9-9-9-9-|
Db|-7-7-7-7-7-7-7-9--9-9-9-9-9-9-9-|
Ab|-7-7-7-7-7-7-7-7--7-7-7-7-7-7-7-|
Db|-7-7-7-7-7-7-7------------------|

   Guitar 4
Eb|--------------------------|
Bb|-10-----------------------|
Gb|-------9------------------|
Db|------------12---11~------|   x3
Ab|----------------------12--|
Db|--------------------------|

Eb|----------------------------|
Bb|-10--------12---------------|
Gb|-------9-----------9--9-11--|
Db|----------------------------|   
Ab|----------------------------|
Db|----------------------------|


BRIDGE

   Guitar 2
Eb|----------------------------------------------------------------------------------------|
Bb|----------------------------------------------------------------------------------------|
Gb|-------------------------------------------------------------7--7-7--7-7-7-7--7-7--7-7-7|
Db|-7--7-7--7-7-7-7-7-7-6-6-6-6-6-4--4-4--4-4-4-4-4-4-2-2-2-2-2-7--7-7--7-7-7-7--7-7--7-7-7|
Ab|-7--7-7--7-7-7-7-7-7-7-7-7-7-7-4--4-4--4-4-4-4-4-4-2-2-2-2-2-5--5-5--5-5-5-5--5-5--5-5-5|
Db|-7--7-7--7-7-7-7-7-7-6-6-6-6-6-4--4-4--4-4-4-4-4-4-2-2-2-2-2----------------------------|

Eb|--------------------------------------------------|
Bb|--------------------------------------------------|
Gb|-7-7-7-7-7-7-7-7-7-7-7-7-7-7-7-7-7~---------------|
Db|-7-7-7-7-7-7-7-7-7-7-7-7-7-7-7-7-7~---------------|
Ab|-5-5-5-5-5-5-5-5-5-5-5-5-5-5-5-5-5~---------------|
Db|--------------------------------------------------|

   Guitar 4
Eb|--------------------------|
Bb|-10-----------------------|
Gb|-------9------------------|
Db|------------12---11~------|   x3
Ab|----------------------12--|
Db|--------------------------|

Eb|--------------------------------------------|
Bb|-10-----------------------------------------|
Gb|-------9---------11~------------------------|
Db|------------12--------12--12~---------------|
Ab|--------------------------------------------|
Db|--------------------------------------------|


Repeat CHORUS


OUTRO

   Guitar 2
Eb|-----------------------------|
Bb|-----------------------------|
Gb|--------------7--7--7-7-7--7-|
Db|-4-4-4--2-2-2-7--7--7-7-7--7-|
Ab|-4-4-4--2-2-2-5--5--5-5-5--5-|
Db|-4-4-4--2-2-2----------------|

Eb|-----------------------|
Bb|-----------------------|
Gb|--------------2~-------|
Db|-4-4-4--2-2-2-2~-------|
Ab|-4-4-4--2-2-2-0~-------|
Db|-4-4-4--2-2-2----------|

   Guitar 4
Eb|------12---------9-----9------9----9----|
Bb|-9-10----10---10---10----10-----10---10-|
Gb|------------9---------------9-----------|
Db|----------------------------------------|
Ab|----------------------------------------|
Db|----------------------------------------|

Eb|------12---------9-----9~-------|
Bb|-9-10----10---10---10-10~-------|
Gb|------------9----------9~-------|
Db|--------------------------------|
Ab|--------------------------------|
Db|--------------------------------|
Suggest correction
What's this?
You can suggest a correction to this tab. Community and Mods will review your correction and vote to approve or reject it.
comments
We did not receive enough feedback on this tab! Please rate:
print report bad tab
1 2 3 4 5
guest
You may want to rate the tab now too:
select rating
Please do not post tabs as comments. Select "correction" instead!