Oops, an error
Loading. Please wait.

One Day Tab

version 1
version 1

Intro

Whole song

Interactive

5,764 views 6 this week
2 commentsread comments
1 2 3 4 5
worth learning
x 3
add to favorites
launch autoscroll
font size
0
reset
how to read this tab
guitar tuner
Tab Pro tools
  • play this tab
  • loop segment
  • change instrument
  • show fretboard
  • metronome
Autoscroll
slow
fast
+/-
esc
set tempo
stop
Author/Artist: Simple Plan
Title: One Day
Transcribed by: GuitarGirl
Email: foxygirl__15@hotmail.com
 
---------2-0--------------2-0-------------------2-0--------------2-0----------
---------3----------------3---------------------3----------------3------------
------------------------------------------------------------------------------
----------------------------------------0---0-0-----0-------------------------
-0/5-5-5-----5--------0-0-----0-----0-2---2------------------0-0-----0-----0--
---------------3-3--3-----------3-3-------------------3-3--3-----------3-3----
intro and verse 
 
-----------2-0----------------------------------------0-3-0-------------------
-----------3------------------------------------------2-3-2-------------------
------------------------------------------------------2-0-2-------------------
-0-0--------------------------------0-2-2-2-2-2-2-2-2-2-0-2-------------------
-----------------0-0--0---------0-2---2-2-2-2-2-2-2-2-0-2-0-------------------
-----3-5-3-----3--------3-3-3-3-------0-0-0-0-0-0-0-0---3---------------------
still part of the verse 
 
------------------------------------------------------------------------------
------------------------------------------------------------------------------
-7-7-------------7-7--------------7---7-7-7-7---------------------------------
-7-7-5-5-7-7-5-7-7-7-5-5-7-7-5555-7---7-7-7-7-5-5-5-5-7-7-7-7-7-7-7-7-9-9-9---
-5-5-5-5-7-7-5-7-5-5-5-5-7-7-5555-5---5-5-5-5-5-5-5-5-7-7-7-7-7-7-7-7-9-9-9---
-----3-3-5-5-3-5-----3-3-5-5-3333-------------3-3-3-3-5-5-5-5-5-5-5-5-7-7-7---
 
------------------------------------------------------------------------------
------------------------------------------------------------------------------
--------------------7---------------------------------------------------------
-9-7-7-7-7-5-5--5-7-7---------------------------------------------------------
-9-7-7-7-7-5-5--5-7-5---------------------------------------------------------
-7-5-5-5-5-3-3--3-5-----------------------------------------------------------
This is the chorus. After this you play the verse again...
Note : after you play the first two bars again replace the third 
bar with the one below 
------------------------------------------------------------------------------
------------------------------------------------------------------------------
------------------------------------------------------------------------------
-9-9-9-9--7-7-7-7----2-2----4-4-5-5-5-5---------------------------------------
-9-9-9-9--7-7-7-7----2-2----4-4-5-5-5-5---------------------------------------
-7-7-7-7--5-5-5-5----0-0----2-2-3-3-3-3---------------------------------------
«wont be there to say I'm not around to, One day »
 
And now into the bridge. 
------------------------------------------------------------ 
------------------------------------------------------------
---------------------7-7-7-7--------------------------------
-9-9-9-9-7-7-5-5-5-5-7-7-7-7-7-7-7-7------------------------ 2 times
-9-9-9-9-7-7-5-5-5-5-5-5-5-5-7-7-7-7------------------------
-7-7-7-7-5-5-3-3-3-3---------5-5-5-5------------------------
« Go away, don't look at me... » this part is played by Seb.
Now what I am about to tab out is a little part that Jeff plays 
which is in the bridge...you'll know what I am talking about once 
you play it
------------------------------------------------------------ 
------------------------------------------------------------
---------------------7-7-9-9-11-11-12-12-14-14-14--14-------
-9-9-9-9-7-7-5-5-5-5---------------------------------------- 2 times
-9-9-9-9-7-7-5-5-5-5-5-5-7-7-9--9--10-10-12-12-12--12-------
-7-7-7-7-5-5-3-3-3-3----------------------------------------
And that's pretty much it...It's not a really hard song but it's 
sorta tough to get the hang of it at the beginning. Good Luck!
comments
We did not receive enough feedback on this tab! Please rate:
print report bad tab
1 2 3 4 5
2 comments total.
-1 reply
commonlerror wrote on April 15 2005, 12:00 am

hey, nice tab... only there are a pretty good amount of mistakes in it, but im the one reading it so i guess what i have to say doesnt matter much... thanks for putting it... oh by the way simple sucks i just like the intro on this song

0 reply
greyisokay wrote on July 3 2006, 06:04 pm

i think the intro is more like this:

e|-----------------------------------------------------------
B|-----------------------------------------------------------
G|---------------6p4--------------------6p4------------------
D|--6/11--11-11------6--4-4-x-x-4--6-6------6--4-4-----------
A|--6/11--11-11---------4-4-x-x-4--6-6---------4-4------3/4--
E|--4/-9---9--9---------2-2-x-x-2--4-4---------2-2--2h4------

and simple plan does NOT suck....you just have a difference of opinion then other people.

I want to post or [tab]
guest
You may want to rate the tab now too:
select rating
Please do not post tabs as comments. Select "correction" instead!