Oops, an error
Loading. Please wait.

One Day Tab

version 2
version 2

Whole song

Interactive

2,994 views 1 this week
no commentswrite comment
1 2 3 4 5
accurate
x 5
add to favorites
launch autoscroll
font size
0
reset
how to read this tab
guitar tuner
Autoscroll
slow
fast
+/-
esc
set tempo
stop
Help us to improve Ultimate-Guitar.com Take our survey!
×
Tuning: Standard (E A D G B E)

one guitar tabbed for 2

intro
E|-------------------------------------------------------||
B|-------------------------------------------------------||
G|------------6p4--------------6p4-----------------------||
D|--6/11-1111-----6--44xx4--66-----6--44-----------------|| 
A|--6/11-1111--------44xx4--66--------44-----3/4---------||
E|--4/-9--9-9--------22xx2--44--------22-2h4-------------||

E|------------------------------------------------||
B|------------------------------------------------||
G|--66-6p4--------------6p4-----------------------||
D|--66-----6--44xx4--66-----6--44-----------------|| 
A|--44--------44xx4--66--------44-----3/4---------||
E|------------22xx2--44--------22-2h4-------------||


verse
E|------------------------------------------------||
B|------------------------------------------------||
G|--66-6p4--------------6p4-----------------------||
D|--66-----6--44xx4--66-----6--44-----------------|| 
A|--44--------44xx4--66--------44-----3/4---------||
E|------------22xx2--44--------22-2h4-------------||

E|-------------------------------------------||
B|-------------------------------------------||
G|--66-6p4--------------6p4---4444/6/4-------||
D|--66-----6--44xx4--66-----6----------6-----|| 
A|--44--------44xx4--66----------------------||
E|------------22xx2--44----------------------||

E|------------------------------------------------||
B|------------------------------------------------||
G|--66-6p4--------------6p4-----------------------||
D|--66-----6--44xx4--66-----6--44-----------------|| 
A|--44--------44xx4--66--------44-----3/4---------||
E|------------22xx2--44--------22-2h4-------------||

slowy release
E|------------------------------||
B|------------------------------||
G|------------------------------||
D|--44444444446~~-66-4~~-6~~----||
A|--44444444446~~-66-4~~-6~~----||
E|--22222222224~~-44-2~~-4~~----||
    ...... 

chorus
E|------------------------------||
B|------------------------------||
G|--66xx------------------------||
D|--66xx-x44xx-x66xx-4~~-6~~----||
A|--44xx-x44xx-x66xx-4~~-6~~----||
E|-------x22xx-x44xx-2~~-4~~----||

E|-------------------------------||
B|-------------------------------||
G|--66xx-------------------------||
D|--66xx-x44xx-66-66-66-444466---||
A|--44xx-x44xx-66-66-66-444466---||
E|-------x22xx-44-44-44-222244---||
                        ....

E|--------------------------------------------||
B|--------------------------------------------||
G|--6666---------------6666-8888--------------||
D|--6666-4444-66666666-6666-8888-44-4~~-6~~---||
A|--4444-4444-66666666-4444-6666-44-4~~-6~~---||
E|-------2222-44444444-----------22-2~~-4~~---||

repeat verse

repeat chorus

verse 
E|----------------------------------------------------------------------||
B|----------------------------------------------------------------------||
G|----------------------------------666688881010101013131313------------||
D|--666666xxxx--66666666--644444444-xxxxxxxx-x-x-x-x-x-x-x-x-44444444---|| x2
A|--666666xxxx--66666666--644444444-44446666-8-8-8-811111111-44444444---||
E|--444444xxxx--44444444--422222222--------------------------22222222---||

E|-------------------------------------||
B|-------------------------------------||
G|-------------------------------------||
D|--44444444444444444444444444444444---||
A|--44444444444444444444444444444444---||
E|--22222222222222222222222222222222---||

chorus
E|-----------------------------||
B|-----------------------------||
G|--66xx-----------------------||
D|--66xx-x44xx-x66xx-44-466----||
A|--44xx-x44xx-x66xx-44-466----||
E|-------x22xx-x44xx-22-244----||

E|-------------------------------||
B|-------------------------------||
G|--66xx-------------------------||
D|--66xx-x44xx-66-66-66-444466---||
A|--44xx-x44xx-66-66-66-444466---||
E|-------x22xx-44-44-44-222244---||
                        ....

E|-----------------------------------------------------||
B|-----------------------------------------------------||
G|--6666---------------6666-8888-----------------------||
D|--6666-4444-66666666-6666-8888-4444-6666-4444-6666---||
A|--4444-4444-66666666-4444-6666-4444-6666-4444-6666---||
E|-------2222-44444444-----------2222-4444-2222-4444---||

outro
E|-------------------------||-------||
B|-------------------------||-------||
G|--6666-------------------||-------||
D|--6666-4444-6666-4466----||--4~~--||x4
A|--4444-4444-6666-4466----||--4~~--||
E|-------2222-4444-2244----||--2~~--||
Suggest correction
comments
print report bad tab
guest
You may want to rate the tab now too:
select rating
Wanna post a correction for this tab? Suggest correction