Oops, an error
Loading. Please wait.

Opinion Overload Tab

version 1
version 1

Intro

  • This version is made for standard tuning, and sole... Show more

Whole song

Interactive

34 views 1 this week
no commentswrite comment
1 2 3 4 5
3 more votes to show rating
add to favorites
launch autoscroll
font size
0
reset
how to read this tab
guitar tuner
Autoscroll
slow
fast
+/-
esc
set tempo
stop
Help us to improve Ultimate-Guitar.com Take our survey!
×
Author
Difficulty
intermediate
About this tab version
This version is made for standard tuning, and solely the intro, paramore_fans did a good job on making the chords. Was this info helpful? Yes No
This song is basically how paramore_fans made it in the chords section, just all in power-chords. I hope you 
enjoy this tab :)


[Intro]

e|---------------------------------------------------------------------------|
B|---------------------------------------------------------------------------|
G|-7-7--7---7--7-7-7--7--7-7-7--7--7-7-7-------------------------------------|
D|-7-7--7---7--7-7-7--7--7-7-7--7--7-7-7-4-5-7--5-5-5--5--5-5-5--5-5-2-2-2-2-|
A|-5-5--5---5--5-5-5--5--5-5-5--5--5-5-5--------5-5-5--5--5-5-5--5-5-2-2-2-2-|
E|----------------------------------------------3-3-3--3--3-3-3--3-3-0-0-0-0-|

e|---------------------------------------------------------------------------|
B|---------------------------------------------------------------------------|
G|---------------------------------------------------------------------------|
D|-5-5-5-4-------------------------------------------------------------------|
A|-5-5-5-4-------------------------------------------------------------------|
E|-3-3-3-2-------------------------------------------------------------------|
Suggest correction
Give kudos to tab author, rate the tab!
1 2 3 4 5
comments
print report bad tab
guest
You may want to rate the tab now too:
select rating
Wanna post a correction for this tab? Suggest correction