Oops, an error
Loading. Please wait.
We have an official Perfect tab made by UG professional guitarists. Check out the tab »
×
70,196 views 27 this week
8 commentsread comments
1 2 3 4 5
x 25
add to favorites
launch autoscroll
font size
0
reset
how to read this tab
guitar tuner
×
Best way to learn
"Perfect"
Autoscroll
slow
fast
+/-
esc
set tempo
stop
[Intro]
e|----------------------------------|
B|----------------------------------|
G|-9-8-9-------9-8-11---------------|
D|-------7-6-2---------7-6-2--------|
A|----------------------------------|
E|----------------------------------|

e|--0-0-2-2-2-5-4-4-4-5-4-0-0-2-2-2-5-4-4-4-5-4-0-0-2-2-2-5-4-4-4-7-5-|
B|--------------------------------------------------------------------|
G|--------------------------------------------------------------------|
D|--------------------------------------------------------------------|
A|--------------------------------------------------------------------|
E|--------------------------------------------------------------------|

e|--4-4-4-2-4-5-5-5-5-4-2-0-2-4-4-4-4-2-4-0-2-0-----|
B|--------------------------------------------------|
G|--------------------------------------------------|
D|--------------------------------------------------|
A|--------------------------------------------------|
E|--------------------------------------------------|
Suggest correction
comments
print report bad tab
8 comments total. Showing first comments.
-2 reply
DarkSideLeader 82 Jan 09, 2006 03:12 PM

Sorry I'm Only 12 and i Dunno What I'm Saying But This looks more like a bass tab?

+3 reply
Kjetil 104 Jan 10, 2006 03:34 AM

This is great! It's just RIGHT! And it's not a bass tab, lol!

0 reply
greyisokay 10 Jul 01, 2006 03:14 PM

i actually think that this is a bass tab. the guitar version looks more like this:

e|----------------------------------------------
B|----------------------------------------------
G|--9--8--9----2--1------9--8--11/13---2--1-----
D|--9--9--9----2--2--2---9--9----------2--2--2--
A|--7--7--7----0--0------7--7----------0--0-----
E|----------------------------------------------

guest
You may want to rate the tab now too:
select rating
Wanna post a correction for this tab? Suggest correction