Oops, an error
Loading. Please wait.

Perfect Bass Tab

version 2
version 2

Whole song

Interactive

11,360 views 9 this week
no commentswrite comment
1 2 3 4 5
please rate
add to favorites
launch autoscroll
font size
0
reset
guitar tuner
Tab Pro tools
  • play this tab
  • loop segment
  • change instrument
  • show fretboard
  • metronome
×
Best way to learn
"Perfect"
Autoscroll
slow
fast
+/-
esc
set tempo
stop
Band : Simple Plan
Song : Perfect (bass Tablature)
Tabbed By: Troalance17

~ let ring
s slide

Intro:
G-------------------------------------------------------------|
D-------------------------------------------------------------|
A---6---6-----------------------------------------------------|(2x)
E-----6---8---6---8-------------------------------------------|

G-------------------------------------------------------------|
D-------------------------------------------------------------|
A---666666----------------------------------------------------|
E------------666666---888888----11-11-11-11-11-11-------------|

(Hey dad...)
G-------------------------------------------------------------|
D-------------------------------------------------------------|
A---6~--6666--------------------------------------------------|(4x)
G-------------6~--6666---8~--8888---11~--111111111------------|

(Cuz we lost...)
G-------------------------------------------------------------|
D-------------------------------------------------------------|
A---6~---6~---------------------------------------------------|
E------6~-----8~---6~---8~------------------------------------|

(Now is just to late...)
G-------------------------------------------------------------|
D-------------------------------------------------------------|
A---6~--6666--------------------------------------------------|
G-------------6~--6666---8~--8888-----------------------------|

G-------------------------------------------------------------|
D-------------------------------------------------------------|
A---666666----------------------------------------------------|
E------------666666—888888----11-11-11-11-11-11---------------|

(I try not...)
G-------------------------------------------------------------|
D-------------------------------------------------------------|
A---6~--6666--------------------------------------------------|(4x)
G-------------6~--6666---8~--8888---11~--111111111------------|

(cuz we lost...)
G-------------------------------------------------------------|
D-------------------------------------------------------------|
A---6~---6~---------------------------------------------------|
E------6~-----8~---6~---8~------------------------------------|

(now is just...)
G-------------------------------------------------------------|
D-------------------------------------------------------------|
A---6~--6666--------------------------------------------------|
G-------------6~--6666---8~--8888-----------------------------|

(nothing's gonna)
G------------------------|
D------------------------|
A------------------------|(4x)
G-------666666s- 888888--|(only the last time let ring)

G-------------------------------------------------------------|
D-------------------------------------------------------------|
A---6~---6~---------------------------------------------------|
E------6~-----8~---6~---8~------------------------------------|

(Cuz we lost...)
G-------------------------------------------------------------|
D-------------------------------------------------------------|
A---666666----------------------------------------------------|(4x)
E------------666666s-888888s-11-11-11-11-11-11----------------|

feel free to correct this tab...thanx...(electrogenesisband)
comments
We did not receive enough feedback on this tab! Please rate:
print report bad tab
1 2 3 4 5
I want to post or [tab]
guest
You may want to rate the tab now too:
select rating
Please do not post tabs as comments. Select "correction" instead!