Oops, an error
Loading. Please wait.

Perfect Chords

version 4
version 4
142,572 views 187 this week
8 commentsread comments
1 2 3 4 5
excellent!
x 41
add to favorites
launch autoscroll
font size
0
reset
transpose
0
reset
display chords
guitar tuner
Tab Pro tools
  • play this tab
  • loop segment
  • change instrument
  • show fretboard
  • metronome
×
Best way to learn
"Perfect"
Autoscroll
slow
fast
+/-
esc
set tempo
stop
Contributor
Difficulty
novice
Tabbed by: Francis Ken M. Cogue
E-mail: iverk3n@yahoo.com


Intro: 
e|-------------------------------------------------|
B|---------------------------8-10------------------|
G|--8-7-8----------------8-7-7--------6------------|
D|--8-8-------6-5--------8------------6-5----------|
A|--6---------6---6------6------------4---6--------|
E|------------4------------------------------------|



Eb-G# 3x
e|-------------------------------------------------------|
B|-------------------------------------------------------|
G|--7s8-8-10-10-10-13-13-12-12-13-13-12-12---------------|
D|--xxx-x-x--x--x--x--x--x--x--x--x--x--x----------------|    3x
A|--5s6-6-8--8--8--11-11-10-10-11-11-10-10---------------|
E|-------------------------------------------------------|


     Eb      Eb     Eb       Eb
e|-------------------------------------------------------|
B|-------------------------------------------------------|
G|--7s8-8-10-10-10-13-13-12-12-15-15-13-13--6~-----------|
D|--xxx-x-x--x--x--x--x--x--x--x--x--x--x---6~-----------|
A|--5s6-6-8--8--8--11-11-10-10-13-13-11-11--8~-----------|
E|-------------------------------------------------------|




Verrse I:

Eb 
Hey dad look at me 
G#
 Think back and talk to me 
       Eb                   G#
Did I grow up according to plan? 
Eb                                  G#
And do you think I'm wasting my time doing things I wanna do? 
         Eb                        G#  
But it hurts when you disapprove all along 



Refrain: 

        Fm
And now I try hard to make it 
G#                     Eb
I just want to make you proud 
Eb                                      Fm
I'm never gonna be good enough for you 
Fm                          G#  
 I can't pretend that I'm alright 
     G#
And you can't change me 



Chorus: 

Eb
Cos we lost it all 
Bb
Nothing lasts forever 
Cm
I'm sorry 
            G#
I can't be perfect 
Eb 
Now it's just too late and 
Bb
We can't go back 
     Cm
I'm sorry 
           G#~         
I can't be perfect 




e|-------------------------------------------------------|
B|-------------------------------------------------------|
G|--7s8-8-10-10-10-13-13-12-12-13-13-12-12---------------|
D|--xxx-x-x--x--x--x--x--x--x--x--x--x--x----------------|    3x (Eb - G# - Eb)
A|--5s6-6-8--8--8--11-11-10-10-11-11-10-10---------------|
E|-------------------------------------------------------|


    G#         G#        G#        G#      Eb
e|-------------------------------------------------------|
B|-------------------------------------------------------|
G|--7s8-8-10-10-10-13-13-12-12-15-15-13-13--6~-----------|
D|--xxx-x-x--x--x--x--x--x--x--x--x--x--x---6~-----------|
A|--5s6-6-8--8--8--11-11-10-10-13-13-11-11--8~-----------|
E|-------------------------------------------------------|




Verse II:

Eb
I try not to think 
G#
 About the pain I feel inside
        Eb                     G# 
Did you know you used to be my hero? 
        Eb    
All the days you spend with me 
G#
Now seem so far away 
        Eb                        G#
And it feels like you don't care anymore 



Refrain:

        Fm 
And now I try hard to make it
G#                      Eb
I just want to make you proud
                                       Fm 
I'm never gonna be good enough for you 
Fm                      G#
 I can't stand another fight
    G#
And nothing's alright 



Chorus: 

Eb
Cos we lost it all 
Bb
Nothing lasts forever 
Cm
I'm sorry 
            G#
I can't be perfect 
Eb 
Now it's just too late and 
Bb
We can't go back 
     Cm
I'm sorry 
           G#          
I can't be perfect 

Cm                         Bb
Nothing's gonna change the things that you said 
Cm                        G#
Nothing's gonna make this right again 
Cm 
Please don't turn your back 
Bb
I can't believe it's hard 
        G#
Just to talk to you 
                G#
But you don't understand 


Ending with this:

e|--------------------------------------------------|
B|---------------------------8-10-------------------|
G|--8-7-8----------------8-7-7----------666666------|
D|--8-8-------6-5--------8--------------666666------|
A|--6---------6---6------6--------------444444------|
E|------------4-------------------------------------|


(Repeat Chorus  until finish)


Enjoy!!!
comments
print report bad tab
8 comments total. Showing first comments. show 1 bad comment
0 reply
factorblue wrote on March 24 2009, 10:35 am

it's the best!!!!!!!!!

swear to god!!!

galing talaga pag pinoy noh?

if it's Eb and G# try this:
Eb G#
e|-0-----0--|
B|-0-----0--|
G|-12----5--|
D|-13----6--|
A|-13----6--|
E|-11----4--|

Samalat sa chords tol!!! I gave you 5!

0 reply
mafeez wrote on July 27 2009, 05:31 am

strum?

I want to post or [tab]
guest
You may want to rate the tab now too:
select rating
Please do not post tabs as comments. Select "correction" instead!