Oops, an error
Loading. Please wait.

Perfect Tab

version 4
version 4

Whole song

Interactive

28,900 views 1 this week
3 commentsread comments
1 2 3 4 5
worth learning
x 6
add to favorites
launch autoscroll
font size
0
reset
how to read this tab
guitar tuner
Autoscroll
slow
fast
+/-
esc
set tempo
stop
Help us to improve Ultimate-Guitar.com Take our survey!
×
Contributor
-----------------------------------------------------------------------------
                         Perfect - Simple Plan
-----------------------------------------------------------------------------

Artist: Simple Plan
Song: Perfect (Track 12)
Albulm: No Pads, No Helmets...Just Balls
Tabbed by: Zero is Great Man
Tunning: Half Step Down-(Eb,Ab,Db,Gb,Bb,eb)
Email: BenZero@verison.net

Guitar 1: Intro: [Clean]
eb|------------------------------------|
Bb|-9-9-9---------9-9-9----------------|
Gb|-9-9-9--6-6-6--9-9-9----------6-6-6-|
Db|-9-9-9--7-7-7--9-9-9-------6--7-7-7-|
Ab|-7-6-7--7-7-7--7-6-7-6-7-9----7-7-7-|
Eb|--------5-4-5-----------------5-4-5-|

Guitar 2: Fill: [Light Distortion]
eb|------------------------------------------------|
Bb|------------------------------------------------|
Gb|-9-9-9-9-9-9-9-9-9-9-9--------------------------|(x2)
Db|-9-9-9-9-9-9-9-9-9-9-9--7-7-7-7-7-7-7-7-7-7-7-7-|
Ab|-7-7-7-7-7-7-7-7-7-7-7--7-7-7-7-7-7-7-7-7-7-7-7-|
Eb|------------------------5-5-5-5-5-5-5-5-5-5-5-5-|

Guitar 1: Fill: [Light Distortion]
eb|------------------------------------|
Bb|------------------------------------|
Gb|-9-9-9-/11-11/13-13-\11-11/13/14/13-|
Db|-x-x-x-/x--x-/-x--x-\x--x-/-x/-x/-x-|(x2)
Ab|-7-7-7-/9--9-/11-11-\9--9-/11/12/11-|
Eb|------------------------------------|

Guitar 1: Verse: [Clean]
eb|------------------------------------|
Bb|-9-9-9---------9-9-9----------------|
Gb|-9-9-9--6-6-6--9-9-9----------6-6-6-|
Db|-9-9-9--7-7-7--9-9-9-------6--7-7-7-|
Ab|-7-6-7--7-7-7--7-6-7-6-7-9----7-7-7-|
Eb|--------5-4-5-----------------5-4-5-|

Guitar 1: Intro: [Clean]
eb|-----------------------------------------------|
Bb|-9-9-9---------9-9-9---------------------------|
Gb|-9-9-9--6-6-6--9-9-9----------6-6-6--13-14-13~-|
Db|-9-9-9--7-7-7--9-9-9-------6--7-7-7------------|
Ab|-7-6-7--7-7-7--7-6-7-6-7-9----7-7-7------------|
Eb|--------5-4-5-----------------5-4-5------------|
 
Guitar 1: Pre-Chorus [Light Distortion]         "And you can't change me" 
eb|------------------------------------------| |-------------------------|
Bb|------11-------------14-----------9-------| |-------------------------|
Gb|------11-------------14--------1--9-------| |-14-14-14-14-14-14-14-14-|
Db|---11-11----------14-14--------2--9-------| |--x--x--x--x--x--x--x--x-|
Ab|-9----9--11-9--12----12-12-14--2--7-6-7-9-| |-12-12-12-12-12-12-12-12-|
Eb|-------------------------------0----------| |-------------------------|


Guitar 2: Pre-Chorus [Light Distortion]
eb|---------------------------------------|
Bb|---------------------------------------|
Gb|---------------------------------------|
Db|-----4-------------7---------2-~-~-~-~-|
Ab|-----4-------------7---------2-~-~-~-~-|
Eb|-2-2-2---------5-5-5-----0-0-0-~-~-~-~-|
    * *           * *       * *

Guitar 1: Chorus [Clean]
eb|----------------------------|
Bb|----------------------------|
Gb|-----9------4------6------2-|
Db|---9-9----4-4----6-6----2-2-|
Ab|-7---7--2---2--4---4--0---0-|
Eb|----------------------------|

Bridge: "Nothings gonna change the things that you..."
Guitar 1: [Distortion]
eb|----------------------------------------|
Bb|----------------------------------------|
Gb|-------------------9-9-9-9--9-9-9-9-9/0-|
Db|-7-7-7-7--9-9-9-9--9-9-9-9--9-9-9-9-9/0-|
Ab|-7-7-7-7--9-9-9-9--7-7-7-7--7-7-7-7-7/0-|
Eb|-5-5-5-5--7-7-7-7-----------------------|
                               |-p.m-|

Guitar 2: [Distortion]
eb|------------------------------------|
Bb|------------------------------------|
Gb|-2-2-2-2--4-4-4-4-------------------|
Db|-2-2-2-2--4-4-4-4--2-2-2-2--2-2-2-2-|
Ab|-0-0-0-0--2-2-2-2--2-2-2-2--2-2-2-2-|
Eb|-------------------0-0-0-0--0-0-0-0-|
                               |-p.m-|


Guitar 1: Outro Chorus [Distortion]
"Cause it's much too late, nothing last forever..."
eb|-------------------------------------|
Bb|-------------------------------------|
Gb|-9-9-9--16-16-16--10-10-10--14-14-14-|
Db|-9-9-9--16-16-16--11-11-11--14-14-14-|
Ab|-7-7-7--14-14-14--11-11-11--12-12-12-|
Eb|------------------9--9--9------------|

Guitar 2: Outro Chorus [Distortion]
eb|--------------------------------------------------------|
Bb|--------------------------------------------------------|
Gb|--------------4-4-4-4-4-4--6-6-6-6-6-6------------------|
Db|-2-2-2-2-2-2--4-4-4-4-4-4--6-6-6-6-6-6--7-7-7-7-7-7-7-7-|
Ab|-2-2-2-2-2-2--2-2-2-2-2-2--4-4-4-4-4-4--7-7-7-7-7-7-7-7-|
Eb|-0-0-0-0-0-0----------------------------5-5-5-5-5-5-5-5-|

Guitar 1: Outro: "Perfect..."
eb|-----|
Bb|-8-~-|
Gb|-9-~-|
Db|-6-~-|
Ab|-7-~-|
Eb|-----|

Guitar 2: Outro: "Perfect..."
eb|-----|
Bb|-----|
Gb|-----|
Db|-7-~-|
Ab|-7-~-|
Eb|-5-~-|


| p.m = Palm mute
| * = Palm mute
| ~ = vibrato
| / = Slide up
| \ = Slide down
| x = Muted note
=============================================================================
comments
print report bad tab
3 comments total.
0 reply
~fRanGa~ 143 wrote on March 17 2004, 12:00 am

Great Song, Great Tab

0 reply
¤gOoDcHaRlOtTe¤ 291 wrote on June 21 2004, 12:00 am

good tab

0 reply
¤gOoDcHaRlOtTe¤ 291 wrote on June 21 2004, 12:00 am

119 tabs!!!??? Unbelievable!!! I only have 2!!!

I want to post or [tab]
guest
You may want to rate the tab now too:
select rating
Please do not post tabs as comments. Select "correction" instead!