Oops, an error
Loading. Please wait.

Perfect World Tab

version 1
version 1

Intro

Whole song

Interactive

10,959 views 3 this week
3 commentsread comments
1 2 3 4 5
accurate
x 9
add to favorites
launch autoscroll
font size
0
reset
how to read this tab
guitar tuner
Tab Pro tools
  • play this tab
  • loop segment
  • change instrument
  • show fretboard
  • metronome
Autoscroll
slow
fast
+/-
esc
set tempo
stop
Contributor
This is tuned down a half step from standard tuning
 
Eb|---------------------------------------------------------------------------|
Bb|---------------------------------------------------------------------------|
Gb|-----1----------1----------------------------------------------------------|
Db|---2---2------2----2-------2---4---2-----2---4---2--------------------x2---|
Ab|-4----------0------------2------------2------------------------------------|
Eb|---------------------------------------------------------------------------|
These are minor Chords
Eb|---------------------------------------------------------------------------|
Bb|-------9---------9---------------------------------------------------------|
Gb|--6----9----6----9----9----11---13----11---9----8----6---------------------|
Db|--6----7----6----7----9----11---13----11---9----8----6----------------x2---|
Ab|--4---------4---------7----9----11----9----7----6----4---------------------|
Eb|---------------------------------------------------------------------------|

I never could have seen this far 
never could have seen this comming
feels like my worlds falling apart, yeah
why is everything so hard
i dont think that i can deal
with the things you said it just wont go away
Eb|---------------------------------------------------------------------------|
Bb|---------------------------------------------------------------------------|
Gb|-----1----------1----------------------------------------------------------|
Db|---2---2------2----2-------2---4---2-----2---4---2--------------------x4---|
Ab|-4----------0------------2-------------2----------------------------------|
Eb|---------------------------------------------------------------------------|
in a perfect world this could never happen
in a perfect world you'd still be here
and it makes no sense i can just pick up the pieces
but to you this means nothing, nothing at all
Eb|---------------------------------------------------------------------------|
Bb|---------------------------------------------------------------------------|
Gb|--6------------------------------------------------------------------------|
Db|--6----7----2----9-----------7-----9---------------------------------------|
Ab|--4----7----2----9---x3------7-----7---------------------------------------|
Eb|-------5----0----7-----------5-----7---------------------------------------|

Eb|---------------------------------------------------------------------------|
Bb|-------9---------9---------------------------------------------------------|
Gb|--6----9----6----9----9----11---13----11---9----8----6---------------------|
Db|--6----7----6----7----9----11---13----11---9----8----6----------------x2---|
Ab|--4---------4---------7----9----11----9----7----6----4---------------------|
Eb|---------------------------------------------------------------------------|
i used to think that i was strong till the day it all went wrong
i think i need a miralcle to make it throught, yeah
i wish that i could bring you back
i wish that i could turn back time cuz i cant let go i just can find my way
with out you i just cant find my way
Eb|---------------------------------------------------------------------------|
Bb|---------------------------------------------------------------------------|
Gb|-----1----------1----------------------------------------------------------|
Db|---2---2------2----2-------2---4---2-----2---4----2-------------------x4---|
Ab|-4----------0------------2------------2-----------------------------------|
Eb|---------------------------------------------------------------------------|
in a perfect world this could never happen 
in a perfect world you'd still be here
and it makes no sense i can just pick up the pieces 
but to you this means nothing, nothing at alll
Eb|---------------------------------------------------------------------------|
Bb|---------------------------------------------------------------------------|
Gb|--6------------------------------------------------------------------------|
Db|--6----7----2----9-----------7-----9---------------------------------------|
Ab|--4----7----2----9---x3------7-----7---------------------------------------|
Eb|-------5----0----7-----------5-----7---------------------------------------|

i dont know what i should do now
i dont know where i should go
i stand here waiting for you
im lost when your not around
i need to hold on to you i just cant let you
Eb|---------------------------------------------------------------------------|
Bb|---------------------------------------------------------------------------|
Gb|-----1----------1----------------------------------------------------------|
Db|---2---2------2----2-------2---4---2-----2---4---2--------------------x4---|
Ab|-4----------0------------2-------------2-----------------------------------|
Eb|---------------------------------------------------------------------------|

GO yeah yeahhhh
Eb|---------------------------------------------------------------------------|
Bb|-------9---------9---------------------------------------------------------|
Gb|--6----9----6----9----9----11---13----11---9----8----6---------------------|
Db|--6----7----6----7----9----11---13----11---9----8----6----------------x2---|
Ab|--4---------4---------7----9----11----9----7----6----4---------------------|
Eb|-------------------------------------------------------------------------
--|

in a perfect world this could never happen
in a perfect world you'd still be here
and it makes no sense i can just pick up the pieces 
but to you this means nothing, nothing at all
Eb|---------------------------------------------------------------------------|
Bb|---------------------------------------------------------------------------|
Gb|--6------------------------------------------------------------------------|
Db|--6----7----2----9-----------7-----9---------------------------------------|
Ab|--4----7----2----9---x3------7-----7---------------------------------------|
Eb|-------5----0----7-----------5-----7---------------------------------------|

Eb|---------------------------------------------------------------------------|
Bb|-------9---------9---------------------------------------------------------|
Gb|--6----9----6----9----9----11---13----11---9----8----6---------------------|
Db|--6----7----6----7----9----11---13----11---9----8----6----------------x2---|
Ab|--4---------4---------7----9----11----9----7----6----4---------------------|
Eb|-------------------------------------------------------------------------

figure out the strumming im me on AIM if you have any questions. Screen name:TenderAgeNBloom

rate this!!!!
comments
print report bad tab
3 comments total.
0 reply
x0xshadylanex0x wrote on December 28 2004, 12:00 am

Eb|---------------------------------------------------------------------------|
Bb|-------9---------9---------------------------------------------------------|
Gb|--6----9----6----9----9----11---13----11---9----8----6---------------------|
Db|--6----7----6----7----9----11---13----11---9----8----6----------------x2---|
Ab|--4---------4---------7----9----11----9----7----6----4---------------------|
Eb|---------------------------------------------------------------------------|

Is sounds a bit off, but i may be listening wrong.

0 reply
ballasu wrote on January 24 2005, 12:00 am

no..your right..its a bit off..you just missing one note in the middle..and oen on the end

0 reply
kaiyamie wrote on August 12 2006, 10:10 pm

isn't there some strumming in the bridge?

I want to post or [tab]
guest
You may want to rate the tab now too:
select rating
Please do not post tabs as comments. Select "correction" instead!